  0
SECTION
  2
HEADER
  9
$ACADVER
  1
AC1015
  9
$ACADMAINTVER
 70
     6
  9
$DWGCODEPAGE
  3
ANSI_1252
  9
$INSBASE
 10
0.0
 20
0.0
 30
0.0
  9
$EXTMIN
 10
-688.8780722696
 20
-648.9512513696
 30
0.0
  9
$EXTMAX
 10
609.4806404334
 20
649.3735023373
 30
0.0
  9
$LIMMIN
 10
0.0
 20
0.0
  9
$LIMMAX
 10
420.0
 20
297.0
  9
$ORTHOMODE
 70
     0
  9
$REGENMODE
 70
     1
  9
$FILLMODE
 70
     1
  9
$QTEXTMODE
 70
     0
  9
$MIRRTEXT
 70
     1
  9
$LTSCALE
 40
1.0
  9
$ATTMODE
 70
     1
  9
$TEXTSIZE
 40
3.5
  9
$TRACEWID
 40
1.0
  9
$TEXTSTYLE
  7
STANDARD
  9
$CLAYER
  8
0
  9
$CELTYPE
  6
ByLayer
  9
$CECOLOR
 62
   256
  9
$CELTSCALE
 40
1.0
  9
$DISPSILH
 70
     0
  9
$DIMSCALE
 40
1.0
  9
$DIMASZ
 40
3.302
  9
$DIMEXO
 40
1.0
  9
$DIMDLI
 40
3.75
  9
$DIMRND
 40
0.0
  9
$DIMDLE
 40
0.0
  9
$DIMEXE
 40
1.0
  9
$DIMTP
 40
0.0
  9
$DIMTM
 40
0.0
  9
$DIMTXT
 40
3.5
  9
$DIMCEN
 40
2.5
  9
$DIMTSZ
 40
0.0
  9
$DIMTOL
 70
     0
  9
$DIMLIM
 70
     0
  9
$DIMTIH
 70
     1
  9
$DIMTOH
 70
     1
  9
$DIMSE1
 70
     0
  9
$DIMSE2
 70
     0
  9
$DIMTAD
 70
     1
  9
$DIMZIN
 70
     0
  9
$DIMBLK
  1

  9
$DIMASO
 70
     1
  9
$DIMSHO
 70
     1
  9
$DIMPOST
  1

  9
$DIMAPOST
  1

  9
$DIMALT
 70
     0
  9
$DIMALTD
 70
     3
  9
$DIMALTF
 40
0.0393700787
  9
$DIMLFAC
 40
1.0
  9
$DIMTOFL
 70
     1
  9
$DIMTVP
 40
0.0
  9
$DIMTIX
 70
     0
  9
$DIMSOXD
 70
     0
  9
$DIMSAH
 70
     0
  9
$DIMBLK1
  1

  9
$DIMBLK2
  1

  9
$DIMSTYLE
  2
ISO-25
  9
$DIMCLRD
 70
     0
  9
$DIMCLRE
 70
     0
  9
$DIMCLRT
 70
     0
  9
$DIMTFAC
 40
1.0
  9
$DIMGAP
 40
1.524
  9
$DIMJUST
 70
     0
  9
$DIMSD1
 70
     0
  9
$DIMSD2
 70
     0
  9
$DIMTOLJ
 70
     0
  9
$DIMTZIN
 70
     0
  9
$DIMALTZ
 70
     0
  9
$DIMALTTZ
 70
     0
  9
$DIMUPT
 70
     0
  9
$DIMDEC
 70
     2
  9
$DIMTDEC
 70
     1
  9
$DIMALTU
 70
     2
  9
$DIMALTTD
 70
     3
  9
$DIMTXSTY
  7
STANDARD
  9
$DIMAUNIT
 70
     0
  9
$DIMADEC
 70
     1
  9
$DIMALTRND
 40
0.0
  9
$DIMAZIN
 70
     0
  9
$DIMDSEP
 70
    44
  9
$DIMATFIT
 70
     3
  9
$DIMFRAC
 70
     0
  9
$DIMLDRBLK
  1

  9
$DIMLUNIT
 70
     2
  9
$DIMLWD
 70
    -2
  9
$DIMLWE
 70
    -2
  9
$DIMTMOVE
 70
     0
  9
$LUNITS
 70
     2
  9
$LUPREC
 70
     2
  9
$SKETCHINC
 40
1.0
  9
$FILLETRAD
 40
10.0
  9
$AUNITS
 70
     0
  9
$AUPREC
 70
     1
  9
$MENU
  1
.
  9
$ELEVATION
 40
0.0
  9
$PELEVATION
 40
0.0
  9
$THICKNESS
 40
0.0
  9
$LIMCHECK
 70
     0
  9
$CHAMFERA
 40
0.0
  9
$CHAMFERB
 40
0.0
  9
$CHAMFERC
 40
0.0
  9
$CHAMFERD
 40
0.0
  9
$SKPOLY
 70
     0
  9
$TDCREATE
 40
2457078.560088727
  9
$TDUCREATE
 40
2457078.51842206
  9
$TDUPDATE
 40
2457078.560148993
  9
$TDUUPDATE
 40
2457078.518482327
  9
$TDINDWG
 40
0.0000000116
  9
$TDUSRTIMER
 40
0.0000000116
  9
$USRTIMER
 70
     1
  9
$ANGBASE
 50
0.0
  9
$ANGDIR
 70
     0
  9
$PDMODE
 70
     0
  9
$PDSIZE
 40
-1.0
  9
$PLINEWID
 40
0.0
  9
$SPLFRAME
 70
     0
  9
$SPLINETYPE
 70
     6
  9
$SPLINESEGS
 70
     8
  9
$HANDSEED
  5
80
  9
$SURFTAB1
 70
     6
  9
$SURFTAB2
 70
     6
  9
$SURFTYPE
 70
     6
  9
$SURFU
 70
     6
  9
$SURFV
 70
     6
  9
$UCSBASE
  2

  9
$UCSNAME
  2

  9
$UCSORG
 10
0.0
 20
0.0
 30
0.0
  9
$UCSXDIR
 10
1.0
 20
0.0
 30
0.0
  9
$UCSYDIR
 10
0.0
 20
1.0
 30
0.0
  9
$UCSORTHOREF
  2

  9
$UCSORTHOVIEW
 70
     0
  9
$UCSORGTOP
 10
0.0
 20
0.0
 30
0.0
  9
$UCSORGBOTTOM
 10
0.0
 20
0.0
 30
0.0
  9
$UCSORGLEFT
 10
0.0
 20
0.0
 30
0.0
  9
$UCSORGRIGHT
 10
0.0
 20
0.0
 30
0.0
  9
$UCSORGFRONT
 10
0.0
 20
0.0
 30
0.0
  9
$UCSORGBACK
 10
0.0
 20
0.0
 30
0.0
  9
$PUCSBASE
  2

  9
$PUCSNAME
  2

  9
$PUCSORG
 10
0.0
 20
0.0
 30
0.0
  9
$PUCSXDIR
 10
1.0
 20
0.0
 30
0.0
  9
$PUCSYDIR
 10
0.0
 20
1.0
 30
0.0
  9
$PUCSORTHOREF
  2

  9
$PUCSORTHOVIEW
 70
     0
  9
$PUCSORGTOP
 10
0.0
 20
0.0
 30
0.0
  9
$PUCSORGBOTTOM
 10
0.0
 20
0.0
 30
0.0
  9
$PUCSORGLEFT
 10
0.0
 20
0.0
 30
0.0
  9
$PUCSORGRIGHT
 10
0.0
 20
0.0
 30
0.0
  9
$PUCSORGFRONT
 10
0.0
 20
0.0
 30
0.0
  9
$PUCSORGBACK
 10
0.0
 20
0.0
 30
0.0
  9
$USERI1
 70
     0
  9
$USERI2
 70
     0
  9
$USERI3
 70
     0
  9
$USERI4
 70
     0
  9
$USERI5
 70
     0
  9
$USERR1
 40
0.0
  9
$USERR2
 40
0.0
  9
$USERR3
 40
0.0
  9
$USERR4
 40
0.0
  9
$USERR5
 40
0.0
  9
$WORLDVIEW
 70
     1
  9
$SHADEDGE
 70
     3
  9
$SHADEDIF
 70
    70
  9
$TILEMODE
 70
     1
  9
$MAXACTVP
 70
    64
  9
$PINSBASE
 10
0.0
 20
0.0
 30
0.0
  9
$PLIMCHECK
 70
     0
  9
$PEXTMIN
 10
1.0000000000E+20
 20
1.0000000000E+20
 30
1.0000000000E+20
  9
$PEXTMAX
 10
-1.0000000000E+20
 20
-1.0000000000E+20
 30
-1.0000000000E+20
  9
$PLIMMIN
 10
0.0
 20
0.0
  9
$PLIMMAX
 10
420.0
 20
297.0
  9
$UNITMODE
 70
     0
  9
$VISRETAIN
 70
     1
  9
$PLINEGEN
 70
     0
  9
$PSLTSCALE
 70
     1
  9
$TREEDEPTH
 70
  3020
  9
$CMLSTYLE
  2
Standard
  9
$CMLJUST
 70
     0
  9
$CMLSCALE
 40
20.0
  9
$PROXYGRAPHICS
 70
     1
  9
$MEASUREMENT
 70
     1
  9
$CELWEIGHT
370
    -1
  9
$ENDCAPS
280
     0
  9
$JOINSTYLE
280
     0
  9
$LWDISPLAY
290
     1
  9
$INSUNITS
 70
     4
  9
$HYPERLINKBASE
  1

  9
$STYLESHEET
  1

  9
$XEDIT
290
     1
  9
$CEPSNTYPE
380
     0
  9
$PSTYLEMODE
290
     1
  9
$FINGERPRINTGUID
  2
{E6793BA9-F552-4565-B949-03BD06DBD89F}
  9
$VERSIONGUID
  2
{FAEB1C32-E019-11D5-929B-00C0DF256EC4}
  9
$EXTNAMES
290
     1
  9
$PSVPSCALE
 40
0.0
  9
$OLESTARTUP
290
     0
  0
ENDSEC
  0
SECTION
  2
CLASSES
  0
CLASS
  1
ACDBDICTIONARYWDFLT
  2
AcDbDictionaryWithDefault
  3
ObjectDBX Classes
 90
        0
280
     0
281
     0
  0
CLASS
  1
VISUALSTYLE
  2
AcDbVisualStyle
  3
ObjectDBX Classes
 90
     4095
280
     0
281
     0
  0
CLASS
  1
MATERIAL
  2
AcDbMaterial
  3
ObjectDBX Classes
 90
     1153
280
     0
281
     0
  0
CLASS
  1
SCALE
  2
AcDbScale
  3
ObjectDBX Classes
 90
     1153
280
     0
281
     0
  0
CLASS
  1
SUN
  2
AcDbSun
  3
SCENEOE
 90
     1153
280
     0
281
     0
  0
CLASS
  1
ACDBPLACEHOLDER
  2
AcDbPlaceHolder
  3
ObjectDBX Classes
 90
        0
280
     0
281
     0
  0
CLASS
  1
LAYOUT
  2
AcDbLayout
  3
ObjectDBX Classes
 90
        0
280
     0
281
     0
  0
ENDSEC
  0
SECTION
  2
TABLES
  0
TABLE
  2
VPORT
  5
8
330
0
100
AcDbSymbolTable
 70
     1
  0
VPORT
  5
29
330
8
100
AcDbSymbolTableRecord
100
AcDbViewportTableRecord
  2
*Active
 70
     0
 10
0.0
 20
0.0
 11
1.0
 21
1.0
 12
-39.6987159181
 22
0.2111254838
 13
0.0
 23
0.0
 14
10.0
 24
10.0
 15
10.0
 25
10.0
 16
0.0
 26
0.0
 36
1.0
 17
0.0
 27
0.0
 37
0.0
 40
1324.291248781
 41
1.000026156
 42
50.0
 43
0.0
 44
0.0
 50
0.0
 51
0.0
 71
     0
 72
   100
 73
     1
 74
     3
 75
     0
 76
     0
 77
     0
 78
     0
281
     0
 65
     1
110
0.0
120
0.0
130
0.0
111
1.0
121
0.0
131
0.0
112
0.0
122
1.0
132
0.0
 79
     0
146
0.0
  0
ENDTAB
  0
TABLE
  2
LTYPE
  5
5
330
0
100
AcDbSymbolTable
 70
     6
  0
LTYPE
  5
14
330
5
100
AcDbSymbolTableRecord
100
AcDbLinetypeTableRecord
  2
ByBlock
 70
     0
  3

 72
    65
 73
     0
 40
0.0
  0
LTYPE
  5
15
330
5
100
AcDbSymbolTableRecord
100
AcDbLinetypeTableRecord
  2
ByLayer
 70
     0
  3

 72
    65
 73
     0
 40
0.0
  0
LTYPE
  5
16
330
5
100
AcDbSymbolTableRecord
100
AcDbLinetypeTableRecord
  2
Continuous
 70
     0
  3
Solid line
 72
    65
 73
     0
 40
0.0
  0
LTYPE
  5
6A
330
5
100
AcDbSymbolTableRecord
100
AcDbLinetypeTableRecord
  2
HIDDEN
 70
     0
  3
Hidden __ __ __ __ __ __ __ __ __ __ __ __ __ __
 72
    65
 73
     2
 40
1.905
 49
1.27
 74
     0
 49
-0.635
 74
     0
  0
LTYPE
  5
6B
330
5
100
AcDbSymbolTableRecord
100
AcDbLinetypeTableRecord
  2
PHANTOM
 70
     0
  3
Phantom ______  __  __  ______  __  __  ______
 72
    65
 73
     6
 40
12.7
 49
6.35
 74
     0
 49
-1.27
 74
     0
 49
1.27
 74
     0
 49
-1.27
 74
     0
 49
1.27
 74
     0
 49
-1.27
 74
     0
  0
LTYPE
  5
6C
330
5
100
AcDbSymbolTableRecord
100
AcDbLinetypeTableRecord
  2
CENTER
 70
     0
  3
Center ____ _ ____ _ ____ _ ____ _ ____ _ ____
 72
    65
 73
     4
 40
10.16
 49
6.35
 74
     0
 49
-1.27
 74
     0
 49
1.27
 74
     0
 49
-1.27
 74
     0
  0
LTYPE
  5
6D
330
5
100
AcDbSymbolTableRecord
100
AcDbLinetypeTableRecord
  2
CENTERX2
 70
     0
  3
Center (2x) ________  __  ________  __  _____
 72
    65
 73
     4
 40
20.32
 49
12.7
 74
     0
 49
-2.54
 74
     0
 49
2.54
 74
     0
 49
-2.54
 74
     0
  0
LTYPE
  5
6E
330
5
100
AcDbSymbolTableRecord
100
AcDbLinetypeTableRecord
  2
DOT2
 70
     0
  3
Dot (.5x) ........................................
 72
    65
 73
     2
 40
0.635
 49
0.0
 74
     0
 49
-0.635
 74
     0
  0
ENDTAB
  0
TABLE
  2
LAYER
  5
2
330
0
100
AcDbSymbolTable
 70
     1
  0
LAYER
  5
10
330
2
100
AcDbSymbolTableRecord
100
AcDbLayerTableRecord
  2
0
 70
     0
 62
     7
  6
Continuous
370
    -3
390
F
  0
ENDTAB
  0
TABLE
  2
STYLE
  5
3
330
0
100
AcDbSymbolTable
 70
     1
  0
STYLE
  5
11
330
3
100
AcDbSymbolTableRecord
100
AcDbTextStyleTableRecord
  2
STANDARD
 70
     0
 40
0.0
 41
1.0
 50
0.0
 71
     0
 42
3.5
  3
GOTHIC.TTF
  4

1001
ACAD
1000
CENTURY GOTHIC
1071
       34
  0
ENDTAB
  0
TABLE
  2
VIEW
  5
6
330
0
100
AcDbSymbolTable
 70
     0
  0
ENDTAB
  0
TABLE
  2
UCS
  5
7
330
0
100
AcDbSymbolTable
 70
     0
  0
ENDTAB
  0
TABLE
  2
APPID
  5
9
330
0
100
AcDbSymbolTable
 70
     1
  0
APPID
  5
12
330
9
100
AcDbSymbolTableRecord
100
AcDbRegAppTableRecord
  2
ACAD
 70
     0
  0
ENDTAB
  0
TABLE
  2
DIMSTYLE
  5
A
330
0
100
AcDbSymbolTable
 70
     1
100
AcDbDimStyleTable
  0
DIMSTYLE
105
27
330
A
100
AcDbSymbolTableRecord
100
AcDbDimStyleTableRecord
  2
ISO-25
 70
     0
 41
2.5
 42
0.625
 43
3.75
 44
1.25
 73
     0
 74
     0
 77
     1
 78
     8
140
2.5
141
2.5
143
0.0393700787
147
0.625
171
     3
172
     1
178
     0
271
     2
272
     2
274
     3
278
    44
283
     0
284
     8
340
11
  0
ENDTAB
  0
TABLE
  2
BLOCK_RECORD
  5
1
330
0
100
AcDbSymbolTable
 70
     1
  0
BLOCK_RECORD
  5
1F
330
1
100
AcDbSymbolTableRecord
100
AcDbBlockTableRecord
  2
*Model_Space
340
22
  0
BLOCK_RECORD
  5
1B
330
1
100
AcDbSymbolTableRecord
100
AcDbBlockTableRecord
  2
*Paper_Space
340
1E
  0
BLOCK_RECORD
  5
23
330
1
100
AcDbSymbolTableRecord
100
AcDbBlockTableRecord
  2
*Paper_Space0
340
26
  0
ENDTAB
  0
ENDSEC
  0
SECTION
  2
BLOCKS
  0
BLOCK
  5
20
330
1F
100
AcDbEntity
  8
0
100
AcDbBlockBegin
  2
*Model_Space
 70
     0
 10
0.0
 20
0.0
 30
0.0
  3
*Model_Space
  1
*Model_Space
  0
ENDBLK
  5
21
330
1F
100
AcDbEntity
  8
0
100
AcDbBlockEnd
  0
BLOCK
  5
1C
330
1B
100
AcDbEntity
 67
     1
  8
0
100
AcDbBlockBegin
  2
*Paper_Space
 70
     0
 10
0.0
 20
0.0
 30
0.0
  3
*Paper_Space
  1
*Paper_Space
  0
ENDBLK
  5
1D
330
1B
100
AcDbEntity
 67
     1
  8
0
100
AcDbBlockEnd
  0
BLOCK
  5
24
330
23
100
AcDbEntity
  8
0
100
AcDbBlockBegin
  2
*Paper_Space0
 70
     0
 10
0.0
 20
0.0
 30
0.0
  3
*Paper_Space0
  1
*Paper_Space0
  0
ENDBLK
  5
25
330
23
100
AcDbEntity
  8
0
100
AcDbBlockEnd
  0
ENDSEC
  0
SECTION
  2
ENTITIES
  0
LINE
  5
6F
330
1F
100
AcDbEntity
  8
0
  6
Continuous
 62
     7
100
AcDbLine
 10
324.7948564397
 20
243.3735023373
 30
0.0
 11
339.7948564397
 21
240.3735023373
 31
0.0
  0
LINE
  5
70
330
1F
100
AcDbEntity
  8
0
  6
Continuous
 62
     7
100
AcDbLine
 10
339.7948564397
 20
240.3735023373
 30
0.0
 11
342.7948564397
 21
140.3735023373
 31
0.0
  0
LINE
  5
71
330
1F
100
AcDbEntity
  8
0
  6
Continuous
 62
     7
100
AcDbLine
 10
-420.2051435603
 20
143.3735023373
 30
0.0
 11
-418.2051435603
 21
243.3735023373
 31
0.0
  0
LINE
  5
72
330
1F
100
AcDbEntity
  8
0
  6
Continuous
 62
     7
100
AcDbLine
 10
-418.2051435603
 20
243.3735023373
 30
0.0
 11
-399.2051435603
 21
246.3735023373
 31
0.0
  0
LINE
  5
73
330
1F
100
AcDbEntity
  8
0
  6
Continuous
 62
     7
100
AcDbLine
 10
259.7948564397
 20
-12.6264976627
 30
0.0
 11
241.7948564397
 21
-11.6264976627
 31
0.0
  0
LWPOLYLINE
  5
74
330
1F
100
AcDbEntity
  8
0
  6
Continuous
 62
     7
100
AcDbPolyline
 90
       48
 70
   128
 43
0.0
 10
-313.2050037384
 20
-589.6264976627
 10
-361.1618995157
 20
-564.6334205298
 10
-406.8507422871
 20
-535.8228351836
 10
-451.4576920323
 20
-502.4362716663
 10
-470.1240255915
 20
-486.535150608
 10
-472.5191448774
 20
-484.3982431189
 10
-474.9023531246
 20
-482.248703185
 10
-477.2734951481
 20
-480.0865357544
 10
-479.6324157633
 20
-477.9117457752
 10
-481.9789597854
 20
-475.7243381956
 10
-484.53109586
 20
-473.3174908085
 10
-538.2500975716
 20
-415.9227594744
 10
-584.718963797
 20
-352.6074725885
 10
-623.2106545299
 20
-284.1651459428
 10
-637.0849306538
 20
-253.4598621255
 10
-649.3032427644
 20
-222.0210882685
 10
-654.2652989974
 20
-207.6743405623
 10
-657.8262910044
 20
-196.8450557348
 10
-661.2357887966
 20
-185.9611138515
 10
-664.4760911263
 20
-175.0237178021
 10
-667.5294967456
 20
-164.0340704765
 10
-674.8181619429
 20
-133.5529401562
 10
-680.6758175792
 20
-100.2528558292
 10
-687.8305946938
 20
-36.3637276079
 10
-688.8780722696
 20
27.6080254239
 10
-683.7264822264
 20
90.9997340128
 10
-669.8422231153
 20
149.9635067471
 10
-655.5273192568
 20
203.9809997323
 10
-635.3803029075
 20
257.846426383
 10
-608.6563470734
 20
311.5999494592
 10
-579.1138691476
 20
360.6036390652
 10
-550.7850421497
 20
399.713908777
 10
-518.9283711195
 20
437.0687442767
 10
-483.224541025
 20
472.9481796634
 10
-463.4142882961
 20
490.8062270387
 10
-460.775306702
 20
493.0916619438
 10
-458.1265632552
 20
495.3648228176
 10
-455.4682474495
 20
497.6257181257
 10
-452.8005487788
 20
499.8743563333
 10
-443.5537778674
 20
507.4862939296
 10
-432.3289351128
 20
516.3292621189
 10
-391.3802880015
 20
545.1687152612
 10
-349.1085870112
 20
569.9269845414
 10
-305.5409055497
 20
590.8726111467
 10
-245.208403434
 20
613.4205797036
 10
-182.6649175177
 20
630.2566475503
 10
-117.97548512
 20
642.0259199928
 10
-51.2051435603
 20
649.3735023373
  0
LWPOLYLINE
  5
75
330
1F
100
AcDbEntity
  8
0
  6
Continuous
 62
     7
100
AcDbPolyline
 90
       75
 70
   128
 43
0.0
 10
-51.2051284313
 20
649.3735023373
 10
-4.2380004405
 20
647.0983415581
 10
42.602028334
 20
643.9800978402
 10
85.8232788747
 20
635.465330384
 10
123.4493572564
 20
627.1112411326
 10
160.7273754028
 20
617.5966731707
 10
197.9501145402
 20
604.331912957
 10
246.3078966538
 20
582.6297737028
 10
291.9734569646
 20
557.983032334
 10
329.6107562466
 20
534.105238852
 10
345.566370524
 20
522.7186677558
 10
352.4495987471
 20
517.5294008675
 10
355.4499323656
 20
515.2106904117
 10
356.7644565948
 20
514.1835345473
 10
357.3417462702
 20
513.7302402197
 10
357.5955395155
 20
513.5305297187
 10
357.7071669816
 20
513.44260653
 10
357.7948564397
 20
513.3735023373
 10
409.6097819632
 20
468.1614197295
 10
455.4869536557
 20
419.1910987569
 10
495.416851124
 20
366.9213541208
 10
529.3899539747
 20
311.8110005221
 10
557.3967418146
 20
254.3188526618
 10
579.0867424391
 20
195.9789141997
 10
595.0034053674
 20
136.2187324702
 10
605.137711174
 20
75.4729791198
 10
609.4806404334
 20
14.1763257951
 10
607.9429285467
 20
-48.3515228823
 10
600.382459318
 20
-110.5410500936
 10
586.7897123539
 20
-171.9334411377
 10
567.1551672614
 20
-232.0698813135
 10
541.469303647
 20
-290.4915559201
 10
506.2142181893
 20
-352.227248409
 10
463.612846001
 20
-410.7222264038
 10
420.0367273878
 20
-459.0321378136
 10
414.7894223213
 20
-464.2502137843
 10
409.4701978229
 20
-469.4248814859
 10
404.0790416809
 20
-474.5555523957
 10
398.6159416834
 20
-479.641637991
 10
393.0808856186
 20
-484.6825497491
 10
387.4738612746
 20
-489.6776991472
 10
381.7948564397
 20
-494.6264976627
 10
350.6625868575
 20
-519.7165746788
 10
317.8790818212
 20
-542.8038055844
 10
283.6648239907
 20
-563.7823148402
 10
248.240296026
 20
-582.5462269067
 10
215.6012195471
 20
-597.4174373067
 10
196.118009438
 20
-605.3796197206
 10
165.0371900429
 20
-616.7352406445
 10
133.408808726
 20
-626.369843036
 10
98.4587293266
 20
-634.7866784899
 10
43.7220951088
 20
-644.3521274987
 10
-11.4178090234
 20
-648.9512513696
 10
-60.0123912102
 20
-648.4984882273
 10
-81.4064066814
 20
-647.9136818863
 10
-90.8154970229
 20
-647.7211906895
 10
-94.9541000782
 20
-647.6609253574
 10
-96.5797050136
 20
-647.6421974238
 10
-98.2051435603
 20
-647.6264976627
 10
-99.8872473775
 20
-647.1113230885
 10
-100.6151240233
 20
-646.7941921226
 10
-100.9426719446
 20
-646.6868234219
 10
-101.0890251965
 20
-646.6500411107
 10
-101.1539228244
 20
-646.6362424336
 10
-101.1825809731
 20
-646.630663565
 10
-101.1952110449
 20
-646.6283068362
 10
-101.200772286
 20
-646.6272890661
 10
-101.2032200119
 20
-646.6268449815
 10
-101.2042971627
 20
-646.6266503088
 10
-101.2051435603
 20
-646.6264976627
 10
-147.3085477922
 20
-640.0936544611
 10
-193.0633811484
 20
-632.2448631334
 10
-234.9204045416
 20
-618.7063918405
 10
-274.4939922283
 20
-605.2046116399
 10
-313.2051435603
 20
-589.6264976627
  0
LWPOLYLINE
  5
76
330
1F
100
AcDbEntity
  8
0
  6
Continuous
 62
     7
100
AcDbPolyline
 90
       43
 70
   128
 43
0.0
 10
-399.2049694061
 20
246.3735023373
 10
-392.1567487046
 20
280.2198870118
 10
-383.5505760376
 20
313.5931556612
 10
-370.3947498759
 20
345.0965649023
 10
-353.6378443423
 20
374.803786199
 10
-344.9786168928
 20
387.2439659318
 10
-335.6594519234
 20
399.0631567517
 10
-325.6610376387
 20
410.3440618034
 10
-315.0451430093
 20
421.0451938484
 10
-303.8735370061
 20
431.1250656485
 10
-282.5816987849
 20
447.4982639837
 10
-257.0612555501
 20
463.0230299989
 10
-227.0388512691
 20
476.7958582081
 10
-195.4194912199
 20
487.2313907116
 10
-166.8450043443
 20
493.9106496427
 10
-145.959153059
 20
497.9067970523
 10
-124.928676738
 20
501.0786871209
 10
-103.8019650686
 20
503.0157240373
 10
-80.9454964372
 20
503.3090366851
 10
-45.7747390401
 20
503.8513071484
 10
-25.0832762932
 20
504.4895490501
 10
-4.4252618201
 20
504.8287389161
 10
16.1375127152
 20
504.4350000676
 10
36.5432556487
 20
502.874455826
 10
56.7301753166
 20
499.7132295125
 10
70.5809446053
 20
496.6951545756
 10
97.370888931
 20
492.2559155723
 10
123.7638387726
 20
486.7433276071
 10
141.7098401765
 20
479.9223234137
 10
157.355647357
 20
472.2699739196
 10
173.0504812775
 20
464.9333908205
 10
193.341316977
 20
454.5508828125
 10
201.8993815432
 20
449.3828757996
 10
203.543083285
 20
448.3073095229
 10
205.1731002228
 20
447.2096148258
 10
206.7888308582
 20
446.0888235613
 10
209.8938343885
 20
443.8499554417
 10
240.7091956168
 20
416.9069132318
 10
265.18659729
 20
386.8381397426
 10
284.5799518086
 20
354.0470234413
 10
300.1431715728
 20
318.9369527952
 10
313.130168983
 20
281.9113162715
 10
324.7948564397
 20
243.3735023373
  0
LWPOLYLINE
  5
77
330
1F
100
AcDbEntity
  8
0
  6
Continuous
 62
     7
100
AcDbPolyline
 90
       33
 70
   128
 43
0.0
 10
342.7946567535
 20
140.3735023373
 10
367.2437982988
 20
131.2551814346
 10
390.7948564397
 20
120.3735023373
 10
411.6603442369
 20
105.4569987116
 10
418.1482758513
 20
99.7013759991
 10
424.2771430652
 20
93.5900284092
 10
430.1189061348
 20
86.9825671313
 10
438.3793802272
 20
75.4496860752
 10
445.4248769889
 20
62.3763811693
 10
453.6652232969
 20
37.1138717661
 10
454.67759382
 20
11.4280641496
 10
453.0436351711
 20
2.8926294333
 10
449.7308264204
 20
-13.0433716176
 10
446.5769447563
 20
-29.0206184056
 10
443.5313183218
 20
-45.0259034675
 10
440.5432752596
 20
-61.0460193401
 10
437.5621437126
 20
-77.0677585604
 10
428.1534995908
 20
-125.0106416756
 10
416.9828722475
 20
-172.4926662463
 10
412.8902231466
 20
-187.2635918159
 10
409.4839270241
 20
-198.5918946689
 10
408.259325423
 20
-201.7970224387
 10
406.7892994798
 20
-204.8960700974
 10
405.0955893357
 20
-207.8924897651
 10
395.7731158993
 20
-219.701502299
 10
384.4428521351
 20
-229.9483042739
 10
379.6711031968
 20
-233.7220649121
 10
363.5753794785
 20
-244.1028025618
 10
346.6030131786
 20
-251.5484866628
 10
328.9348904642
 20
-256.5973782743
 10
310.7518975027
 20
-259.7877384555
 10
274.2322307317
 20
-262.71444579
 10
237.7948564397
 20
-264.6264976627
  0
LWPOLYLINE
  5
78
330
1F
100
AcDbEntity
  8
0
  6
Continuous
 62
     7
100
AcDbPolyline
 90
       42
 70
   128
 43
0.0
 10
237.7947568893
 20
-264.6264976627
 10
226.9585499616
 20
-292.1241571397
 10
216.1080821939
 20
-319.6150296414
 10
203.5014984805
 20
-346.1667573179
 10
190.2208946453
 20
-368.3361837258
 10
175.2793684793
 20
-389.473490961
 10
164.7482232098
 20
-402.7447231242
 10
153.4339335088
 20
-415.9312116643
 10
141.4061314479
 20
-429.0422427563
 10
128.8405942767
 20
-441.6434091193
 10
115.6619574544
 20
-453.5622982544
 10
101.7948564397
 20
-464.6264976627
 10
83.7539468835
 20
-476.0394415651
 10
64.2647324566
 20
-484.9726497795
 10
42.2571839057
 20
-492.0855897569
 10
16.1737394152
 20
-497.8193783312
 10
7.7198177786
 20
-499.1332705057
 10
-0.765980102
 20
-500.1944687121
 10
-9.2718831516
 20
-501.0028988352
 10
-17.7861202956
 20
-501.5584867598
 10
-33.4821730379
 20
-502.0662962716
 10
-50.8062940143
 20
-501.9828752034
 10
-68.2236820194
 20
-501.1132795198
 10
-80.1884983194
 20
-499.993674977
 10
-92.099564196
 20
-498.4016154911
 10
-103.9170214885
 20
-496.2960080782
 10
-115.601012036
 20
-493.6357597541
 10
-127.1116776777
 20
-490.3797775345
 10
-138.4091602529
 20
-486.4869684356
 10
-149.4536016007
 20
-481.916239473
 10
-160.2051435603
 20
-476.6264976627
 10
-184.9603234073
 20
-460.8272864038
 10
-205.9674239629
 20
-442.8425850359
 10
-212.2555278135
 20
-436.53282816
 10
-221.5776682138
 20
-426.6173071583
 10
-230.4007694109
 20
-416.553612152
 10
-238.7572882731
 20
-406.3380341109
 10
-246.6796816682
 20
-395.9668640047
 10
-254.2004064644
 20
-385.436392803
 10
-278.2732680165
 20
-346.4709197806
 10
-299.1153343531
 20
-305.2572750431
 10
-318.2051435603
 20
-261.6264976627
  0
LWPOLYLINE
  5
79
330
1F
100
AcDbEntity
  8
0
  6
Continuous
 62
     7
100
AcDbPolyline
 90
       32
 70
   128
 43
0.0
 10
-318.2051181793
 20
-261.6264976627
 10
-340.5453279311
 20
-262.3628966278
 10
-363.0457686863
 20
-263.7467439417
 10
-385.0983031025
 20
-262.9061385455
 10
-404.5183245797
 20
-257.7537770116
 10
-416.890437122
 20
-253.6126681814
 10
-425.7745660648
 20
-250.7431098449
 10
-434.4985449282
 20
-247.5595043321
 10
-442.8865753347
 20
-243.7197684419
 10
-453.3649486485
 20
-237.124498256
 10
-466.73101153
 20
-225.9529811436
 10
-477.2643656106
 20
-213.6231643084
 10
-485.3987077416
 20
-199.92930597
 10
-491.4608091705
 20
-184.9876517946
 10
-496.0436139859
 20
-168.3447352362
 10
-503.8354070502
 20
-133.8159355916
 10
-511.7256695441
 20
-98.5240601864
 10
-519.1677558296
 20
-63.1443690364
 10
-525.774259697
 20
-27.631887298
 10
-530.1265328688
 20
0.393231158
 10
-533.2738668462
 20
26.0795411163
 10
-533.3538169676
 20
32.3624838262
 10
-532.5765836886
 20
38.6346343577
 10
-531.0795052502
 20
44.8549861781
 10
-528.9999198935
 20
50.9825327545
 10
-522.8346904794
 20
64.3464293577
 10
-514.445108981
 20
78.5058812436
 10
-503.2767096682
 20
93.017588748
 10
-490.2185139048
 20
105.7374172186
 10
-468.9910387789
 20
120.009942731
 10
-444.7406194634
 20
131.9491828874
 10
-420.2051435603
 20
143.3735023373
  0
LWPOLYLINE
  5
7A
330
1F
100
AcDbEntity
  8
0
  6
Continuous
 62
     7
100
AcDbPolyline
 90
       55
 70
   128
 43
0.0
 10
-342.2050476074
 20
-9.6264976627
 10
-348.0858118783
 20
24.9321973975
 10
-351.945185507
 20
54.2315456316
 10
-353.6296583912
 20
80.5010595176
 10
-352.9856244757
 20
105.9702515339
 10
-350.7460167733
 20
126.8726611338
 10
-346.8995764048
 20
149.7388207334
 10
-341.3717954766
 20
175.6501738853
 10
-337.856303124
 20
188.2371393866
 10
-327.3132923458
 20
214.2109849922
 10
-313.5265255998
 20
240.2742847234
 10
-300.3278019797
 20
261.2904475006
 10
-294.5815964176
 20
269.5028262198
 10
-292.1114605681
 20
272.8588131166
 10
-291.0398146883
 20
274.2807361194
 10
-290.5715721681
 20
274.8953755534
 10
-290.3662094337
 20
275.1636506931
 10
-290.275980816
 20
275.2812693676
 10
-290.2363057908
 20
275.332939554
 10
-290.2051435603
 20
275.3735023373
 10
-255.7625150413
 20
313.3939795617
 10
-216.7292684246
 20
344.5176687598
 10
-174.0137712067
 20
368.6624923394
 10
-128.5243908842
 20
385.7463727083
 10
-81.1694949537
 20
395.6872322744
 10
-36.0898195815
 20
398.4483691448
 10
9.0851017277
 20
394.8489104022
 10
53.6167325558
 20
384.8221239241
 10
82.2964954221
 20
374.6511418556
 10
110.1620082251
 20
361.6321620948
 10
116.2839798797
 20
358.3161421719
 10
122.3518144204
 20
354.8554116012
 10
128.3631097335
 20
351.2497533343
 10
134.3154637056
 20
347.4989503229
 10
140.206474223
 20
343.6027855185
 10
146.0337391723
 20
339.5610418727
 10
151.7948564397
 20
335.3735023373
 10
169.0572150022
 20
321.4528486255
 10
185.2762443553
 20
306.2160867725
 10
200.3689178844
 20
289.8240447732
 10
214.2522089753
 20
272.4375506228
 10
224.9500319139
 20
257.1548900486
 10
231.2781583856
 20
247.3910894921
 10
237.3248232658
 20
237.4444371856
 10
249.1361703713
 20
214.8364518536
 10
252.1907719532
 20
207.8733747192
 10
257.1826078836
 20
195.4837259237
 10
261.5490453969
 20
183.2558099869
 10
265.3086077516
 20
171.1700024778
 10
268.4798182061
 20
159.2066789655
 10
271.0812000188
 20
147.3462150191
 10
273.1312764482
 20
135.5689862076
 10
276.1489130673
 20
86.9589275607
 10
271.2567948031
 20
38.0336300565
 10
259.7948564397
 20
-12.6264976627
  0
LWPOLYLINE
  5
7B
330
1F
100
AcDbEntity
  8
0
  6
Continuous
 62
     7
100
AcDbPolyline
 90
       18
 70
   128
 43
0.0
 10
241.7948246002
 20
-11.6264976627
 10
235.4144383693
 20
-17.3425771659
 10
233.0188154789
 20
-20.0918717041
 10
232.2434931012
 20
-21.4601219433
 10
231.9732721594
 20
-22.1024935581
 10
231.8695494908
 20
-22.3937687139
 10
231.8269723363
 20
-22.52367085
 10
231.8088414431
 20
-22.5811708219
 10
231.8009814941
 20
-22.6065377283
 10
231.7975459686
 20
-22.6177121658
 10
231.7960387679
 20
-22.6226314386
 10
231.7948564397
 20
-22.6264976627
 10
223.1166992814
 20
-48.938206034
 10
218.1851597844
 20
-70.2770526282
 10
218.7050687421
 20
-79.2840228509
 10
222.058468615
 20
-87.2906217397
 10
228.8776382364
 20
-94.3777973314
 10
239.7948564397
 20
-100.6264976627
  0
LWPOLYLINE
  5
7C
330
1F
100
AcDbEntity
  8
0
  6
Continuous
 62
     7
100
AcDbPolyline
 90
       59
 70
   128
 43
0.0
 10
239.7948503494
 20
-100.6264976627
 10
236.286404009
 20
-114.2246831791
 10
232.6731089749
 20
-127.7962009126
 10
229.0038453549
 20
-141.3534026414
 10
225.3274871666
 20
-154.9086401442
 10
221.6929084277
 20
-168.4742651993
 10
218.1489831558
 20
-182.0626295853
 10
214.7445853684
 20
-195.6860850805
 10
209.6901031701
 20
-216.807096953
 10
200.4686316692
 20
-253.0320694024
 10
189.616471135
 20
-287.4383981315
 10
175.3983888205
 20
-320.7102654034
 10
156.0791519787
 20
-353.5318534812
 10
150.3072714499
 20
-361.6730726694
 10
147.3130734746
 20
-365.7153626776
 10
144.2707769864
 20
-369.7230494321
 10
141.1818291055
 20
-373.6962196835
 10
138.0476769519
 20
-377.6349601824
 10
134.8697676459
 20
-381.5393576793
 10
119.3424377014
 20
-399.485838974
 10
107.8198094871
 20
-411.7113403324
 10
88.0580090918
 20
-428.953601096
 10
66.3982736184
 20
-442.8996306246
 10
40.7800937855
 20
-453.9696053181
 10
12.9758073331
 20
-460.4638626559
 10
-1.3280359311
 20
-462.2198457257
 10
-16.5910971906
 20
-463.6182952225
 10
-31.9723671776
 20
-464.46417136
 10
-47.3924847062
 20
-464.6635980115
 10
-62.7720885906
 20
-464.1226990502
 10
-91.5068057405
 20
-460.7355021627
 10
-119.2723851135
 20
-453.7182639745
 10
-145.5296807179
 20
-442.4332301867
 10
-169.7395465624
 20
-426.2426465002
 10
-185.2909266357
 20
-411.9587955192
 10
-197.5096724938
 20
-399.2633897357
 10
-222.6373038159
 20
-368.71522876
 10
-244.4347448114
 20
-335.7528790691
 10
-263.7447564793
 20
-296.1465018264
 10
-272.9780696985
 20
-268.1436656593
 10
-280.5712289371
 20
-239.8025877619
 10
-287.2222524325
 20
-214.5969335102
 10
-290.4490557102
 20
-203.4310381314
 10
-291.3433716335
 20
-200.4992252306
 10
-292.2614872144
 20
-197.5643721531
 10
-293.2051435603
 20
-194.6264976627
 10
-297.2972902019
 20
-187.9697903045
 10
-299.1924145293
 20
-185.0905576945
 10
-299.831062875
 20
-183.7411460121
 10
-300.0560879633
 20
-183.1235714974
 10
-300.1427118921
 20
-182.84655572
 10
-300.1782962967
 20
-182.7235890156
 10
-300.1934523602
 20
-182.6692697703
 10
-300.2000230624
 20
-182.6453274787
 10
-300.2028951236
 20
-182.6347847382
 10
-300.204155136
 20
-182.630144355
 10
-300.2051435603
 20
-182.6264976627
 10
-310.1443467221
 20
-140.7355936807
 10
-319.2051435603
 20
-98.6264976627
  0
LWPOLYLINE
  5
7D
330
1F
100
AcDbEntity
  8
0
  6
Continuous
 62
     7
100
AcDbPolyline
 90
       13
 70
   128
 43
0.0
 10
-319.2050457001
 20
-98.6264976627
 10
-312.1788355994
 20
-93.5217200139
 10
-307.0496331617
 20
-88.7414070554
 10
-304.3944029754
 20
-81.7194608003
 10
-304.3876442269
 20
-78.8074558613
 10
-304.8269308308
 20
-75.4325419355
 10
-306.4355319835
 20
-67.9802026941
 10
-309.9528067605
 20
-46.2208853577
 10
-312.3774469017
 20
-31.647250191
 10
-316.7867609466
 20
-21.0725255468
 10
-322.1584073693
 20
-15.9242980767
 10
-330.3708632238
 20
-12.1657851331
 10
-342.2051435603
 20
-9.6264976627
  0
LWPOLYLINE
  5
7E
330
1F
100
AcDbEntity
  8
0
  6
Continuous
 62
     7
100
AcDbPolyline
 90
       38
 70
   128
 43
0.0
 10
278.7947654724
 20
237.3735023373
 10
256.8076583691
 20
274.0932191719
 10
232.3872617744
 20
309.0880611829
 10
223.7141572814
 20
319.2782267174
 10
207.2325076375
 20
336.1819839199
 10
187.3800719248
 20
353.9319324201
 10
166.1532754522
 20
370.337810187
 10
143.7216787891
 20
385.2117276368
 10
105.9703024375
 20
405.2539799655
 10
66.2814919793
 20
420.1867543889
 10
49.8458274452
 20
424.6007391172
 10
18.4833874946
 20
430.7354779335
 10
-12.8681261964
 20
434.2326476457
 10
-44.0649776435
 20
435.1075282869
 10
-96.2458382622
 20
430.6345799582
 10
-146.8649943842
 20
418.7288817339
 10
-195.2200407271
 20
399.4651036839
 10
-225.5529224921
 20
382.7565224901
 10
-254.3916515871
 20
362.8967553533
 10
-260.6397113269
 20
358.0075204846
 10
-266.800010812
 20
352.9608042219
 10
-272.8702654465
 20
347.7568494321
 10
-278.8481906344
 20
342.3958989819
 10
-284.73150178
 20
336.8781957381
 10
-290.5179142873
 20
331.2039825677
 10
-296.2051435603
 20
325.3735023373
 10
-311.853268852
 20
307.2444001071
 10
-326.0664559458
 20
287.9199294833
 10
-328.4560042318
 20
284.4417535044
 10
-330.8188298424
 20
280.9491825215
 10
-336.821758912
 20
271.7448727469
 10
-342.0095317983
 20
263.1375111225
 10
-345.7527932641
 20
256.2118281354
 10
-349.8271149877
 20
246.7195892866
 10
-351.0837580477
 20
241.384632475
 10
-351.9536263495
 20
237.4494249607
 10
-354.631119107
 20
235.6893986452
 10
-359.2051435603
 20
233.3735023373
  0
LWPOLYLINE
  5
7F
330
1F
100
AcDbEntity
  8
0
  6
Continuous
 62
     7
100
AcDbPolyline
 90
       44
 70
   128
 43
0.0
 10
-359.2050075531
 20
233.3735023373
 10
-351.0643051891
 20
271.2695056891
 10
-340.7835946217
 20
306.0782108834
 10
-326.7387450813
 20
338.2329233313
 10
-307.3054897907
 20
368.1669484437
 10
-280.8595619732
 20
396.3135916314
 10
-252.6795403044
 20
417.7964674581
 10
-222.6284225554
 20
433.6648111911
 10
-189.6045951053
 20
446.0924722768
 10
-151.2313404538
 20
455.7581052049
 10
-113.7440207065
 20
460.7446740229
 10
-102.5337050789
 20
461.3149512861
 10
-79.7692818579
 20
461.7870347105
 10
-53.4458503759
 20
462.1744660013
 10
-26.8615659007
 20
462.1795848139
 10
-0.1999055678
 20
461.5564302701
 10
49.8550671164
 20
457.7795450717
 10
98.28298856
 20
449.1958229269
 10
143.8373934885
 20
434.1343107084
 10
178.9705460143
 20
415.2541617032
 10
210.4578544355
 20
389.633878893
 10
216.1508927684
 20
383.7241107491
 10
221.6691544906
 20
377.5085608871
 10
227.0070403242
 20
370.9797231767
 10
232.1589509914
 20
364.1300914876
 10
237.1192872143
 20
356.9521596894
 10
241.8824497152
 20
349.4384216518
 10
246.4428392163
 20
341.5813712446
 10
250.7948564397
 20
333.3735023373
 10
262.1612806596
 20
307.0355324715
 10
270.8305671294
 20
279.5700620925
 10
276.8195964246
 20
254.8776631882
 10
279.1064101758
 20
243.9536576389
 10
280.0621078676
 20
239.1473524279
 10
280.4742811673
 20
237.0336286252
 10
280.6349178387
 20
236.2034854545
 10
280.7948564397
 20
235.3735023373
 10
280.805759532
 20
235.2222945679
 10
280.779816942
 20
235.1603924134
 10
280.7177257822
 20
235.1448470869
 10
280.6252838504
 20
235.1814844475
 10
280.08325753
 20
235.6774049665
 10
279.557790007
 20
236.301153976
 10
278.7948564397
 20
237.3735023373
  0
ENDSEC
  0
SECTION
  2
OBJECTS
  0
DICTIONARY
  5
C
330
0
100
AcDbDictionary
281
     1
  3
ACAD_GROUP
350
D
  3
ACAD_LAYOUT
350
1A
  3
ACAD_MLINESTYLE
350
17
  3
ACAD_PLOTSETTINGS
350
19
  3
ACAD_PLOTSTYLENAME
350
E
  3
ACAD_SCALELIST
350
47
  0
DICTIONARY
  5
D
102
{ACAD_REACTORS
330
C
102
}
330
C
100
AcDbDictionary
281
     1
  0
DICTIONARY
  5
1A
102
{ACAD_REACTORS
330
C
102
}
330
C
100
AcDbDictionary
281
     1
  3
Layout1
350
1E
  3
Layout2
350
26
  3
Model
350
22
  0
DICTIONARY
  5
17
102
{ACAD_REACTORS
330
C
102
}
330
C
100
AcDbDictionary
281
     1
  3
Standard
350
18
  0
DICTIONARY
  5
19
102
{ACAD_REACTORS
330
C
102
}
330
C
100
AcDbDictionary
281
     1
  0
ACDBDICTIONARYWDFLT
  5
E
102
{ACAD_REACTORS
330
C
102
}
330
C
100
AcDbDictionary
281
     1
  3
Normal
350
F
100
AcDbDictionaryWithDefault
340
F
  0
DICTIONARY
  5
47
102
{ACAD_REACTORS
330
C
102
}
330
C
100
AcDbDictionary
281
     1
  3
A0
350
48
  3
A1
350
49
  3
A2
350
4A
  3
A3
350
4B
  3
A4
350
4C
  3
A5
350
4D
  3
A6
350
4E
  3
A7
350
4F
  3
A8
350
50
  3
A9
350
51
  3
B0
350
52
  3
B1
350
53
  3
B2
350
54
  3
B3
350
55
  3
B4
350
56
  3
B5
350
57
  3
B6
350
58
  3
B7
350
59
  3
B8
350
5A
  3
B9
350
5B
  3
C0
350
5C
  3
C1
350
5D
  3
C2
350
5E
  3
C3
350
5F
  3
C4
350
60
  3
C5
350
61
  3
C6
350
62
  3
C7
350
63
  3
C8
350
64
  3
C9
350
65
  3
D0
350
66
  3
D1
350
67
  3
D2
350
68
  0
LAYOUT
  5
1E
102
{ACAD_REACTORS
330
1A
102
}
330
1A
100
AcDbPlotSettings
  1

  2
none_device
  4

  6

 40
0.0
 41
0.0
 42
0.0
 43
0.0
 44
0.0
 45
0.0
 46
0.0
 47
0.0
 48
0.0
 49
0.0
140
0.0
141
0.0
142
1.0
143
1.0
 70
   688
 72
     1
 73
     0
 74
     5
  7

 75
    16
147
1.0
148
0.0
149
0.0
100
AcDbLayout
  1
Layout1
 70
     1
 71
     1
 10
0.0
 20
0.0
 11
420.0
 21
297.0
 12
0.0
 22
0.0
 32
0.0
 14
1.0000000000E+20
 24
1.0000000000E+20
 34
1.0000000000E+20
 15
-1.0000000000E+20
 25
-1.0000000000E+20
 35
-1.0000000000E+20
146
0.0
 13
0.0
 23
0.0
 33
0.0
 16
1.0
 26
0.0
 36
0.0
 17
0.0
 27
1.0
 37
0.0
 76
     0
330
1B
  0
LAYOUT
  5
26
102
{ACAD_REACTORS
330
1A
102
}
330
1A
100
AcDbPlotSettings
  1

  2
none_device
  4

  6

 40
0.0
 41
0.0
 42
0.0
 43
0.0
 44
0.0
 45
0.0
 46
0.0
 47
0.0
 48
0.0
 49
0.0
140
0.0
141
0.0
142
1.0
143
1.0
 70
   688
 72
     1
 73
     0
 74
     5
  7

 75
    16
147
1.0
148
0.0
149
0.0
100
AcDbLayout
  1
Layout2
 70
     1
 71
     2
 10
0.0
 20
0.0
 11
0.0
 21
0.0
 12
0.0
 22
0.0
 32
0.0
 14
0.0
 24
0.0
 34
0.0
 15
0.0
 25
0.0
 35
0.0
146
0.0
 13
0.0
 23
0.0
 33
0.0
 16
1.0
 26
0.0
 36
0.0
 17
0.0
 27
1.0
 37
0.0
 76
     0
330
23
  0
LAYOUT
  5
22
102
{ACAD_REACTORS
330
1A
102
}
330
1A
100
AcDbPlotSettings
  1

  2
none_device
  4
ANSI_A_(11.00_x_8.50_Inches)
  6

 40
6.35
 41
19.05
 42
6.35000508
 43
19.05000254
 44
279.4
 45
215.9
 46
139.885529664
 47
88.8652415
 48
0.0
 49
0.0
140
0.0
141
0.0
142
0.0064814292
143
1.0
 70
  1696
 72
     0
 73
     0
 74
     0
  7

 75
     0
147
0.0179189148
148
-1300.4909072572
149
0.0
100
AcDbLayout
  1
Model
 70
     1
 71
     0
 10
0.0
 20
0.0
 11
420.0
 21
297.0
 12
0.0
 22
0.0
 32
0.0
 14
-688.8780722696
 24
-648.9512513696
 34
0.0
 15
609.4806404334
 25
649.3735023373
 35
0.0
146
0.0
 13
0.0
 23
0.0
 33
0.0
 16
1.0
 26
0.0
 36
0.0
 17
0.0
 27
1.0
 37
0.0
 76
     0
330
1F
331
29
  0
MLINESTYLE
  5
18
102
{ACAD_REACTORS
330
17
102
}
330
17
100
AcDbMlineStyle
  2
Standard
 70
     0
  3

 62
   256
 51
90.0
 52
90.0
 71
     2
 49
0.5
 62
   256
  6
BYLAYER
 49
-0.5
 62
   256
  6
BYLAYER
  0
ACDBPLACEHOLDER
  5
F
102
{ACAD_REACTORS
330
E
102
}
330
E
  0
SCALE
  5
48
102
{ACAD_REACTORS
330
47
102
}
330
47
100
AcDbScale
 70
     0
300
1:1
140
1.0
141
1.0
290
     1
  0
SCALE
  5
49
102
{ACAD_REACTORS
330
47
102
}
330
47
100
AcDbScale
 70
     0
300
1:2
140
1.0
141
2.0
290
     0
  0
SCALE
  5
4A
102
{ACAD_REACTORS
330
47
102
}
330
47
100
AcDbScale
 70
     0
300
1:4
140
1.0
141
4.0
290
     0
  0
SCALE
  5
4B
102
{ACAD_REACTORS
330
47
102
}
330
47
100
AcDbScale
 70
     0
300
1:5
140
1.0
141
5.0
290
     0
  0
SCALE
  5
4C
102
{ACAD_REACTORS
330
47
102
}
330
47
100
AcDbScale
 70
     0
300
1:8
140
1.0
141
8.0
290
     0
  0
SCALE
  5
4D
102
{ACAD_REACTORS
330
47
102
}
330
47
100
AcDbScale
 70
     0
300
1:10
140
1.0
141
10.0
290
     0
  0
SCALE
  5
4E
102
{ACAD_REACTORS
330
47
102
}
330
47
100
AcDbScale
 70
     0
300
1:16
140
1.0
141
16.0
290
     0
  0
SCALE
  5
4F
102
{ACAD_REACTORS
330
47
102
}
330
47
100
AcDbScale
 70
     0
300
1:20
140
1.0
141
20.0
290
     0
  0
SCALE
  5
50
102
{ACAD_REACTORS
330
47
102
}
330
47
100
AcDbScale
 70
     0
300
1:30
140
1.0
141
30.0
290
     0
  0
SCALE
  5
51
102
{ACAD_REACTORS
330
47
102
}
330
47
100
AcDbScale
 70
     0
300
1:40
140
1.0
141
40.0
290
     0
  0
SCALE
  5
52
102
{ACAD_REACTORS
330
47
102
}
330
47
100
AcDbScale
 70
     0
300
1:50
140
1.0
141
50.0
290
     0
  0
SCALE
  5
53
102
{ACAD_REACTORS
330
47
102
}
330
47
100
AcDbScale
 70
     0
300
1:100
140
1.0
141
100.0
290
     0
  0
SCALE
  5
54
102
{ACAD_REACTORS
330
47
102
}
330
47
100
AcDbScale
 70
     0
300
2:1
140
2.0
141
1.0
290
     0
  0
SCALE
  5
55
102
{ACAD_REACTORS
330
47
102
}
330
47
100
AcDbScale
 70
     0
300
4:1
140
4.0
141
1.0
290
     0
  0
SCALE
  5
56
102
{ACAD_REACTORS
330
47
102
}
330
47
100
AcDbScale
 70
     0
300
8:1
140
8.0
141
1.0
290
     0
  0
SCALE
  5
57
102
{ACAD_REACTORS
330
47
102
}
330
47
100
AcDbScale
 70
     0
300
10:1
140
10.0
141
1.0
290
     0
  0
SCALE
  5
58
102
{ACAD_REACTORS
330
47
102
}
330
47
100
AcDbScale
 70
     0
300
100:1
140
100.0
141
1.0
290
     0
  0
SCALE
  5
59
102
{ACAD_REACTORS
330
47
102
}
330
47
100
AcDbScale
 70
     0
300
1/128" = 1'-0"
140
0.0078125
141
12.0
290
     0
  0
SCALE
  5
5A
102
{ACAD_REACTORS
330
47
102
}
330
47
100
AcDbScale
 70
     0
300
1/64" = 1'-0"
140
0.015625
141
12.0
290
     0
  0
SCALE
  5
5B
102
{ACAD_REACTORS
330
47
102
}
330
47
100
AcDbScale
 70
     0
300
1/32" = 1'-0"
140
0.03125
141
12.0
290
     0
  0
SCALE
  5
5C
102
{ACAD_REACTORS
330
47
102
}
330
47
100
AcDbScale
 70
     0
300
1/16" = 1'-0"
140
0.0625
141
12.0
290
     0
  0
SCALE
  5
5D
102
{ACAD_REACTORS
330
47
102
}
330
47
100
AcDbScale
 70
     0
300
3/32" = 1'-0"
140
0.09375
141
12.0
290
     0
  0
SCALE
  5
5E
102
{ACAD_REACTORS
330
47
102
}
330
47
100
AcDbScale
 70
     0
300
1/8" = 1'-0"
140
0.125
141
12.0
290
     0
  0
SCALE
  5
5F
102
{ACAD_REACTORS
330
47
102
}
330
47
100
AcDbScale
 70
     0
300
3/16" = 1'-0"
140
0.1875
141
12.0
290
     0
  0
SCALE
  5
60
102
{ACAD_REACTORS
330
47
102
}
330
47
100
AcDbScale
 70
     0
300
1/4" = 1'-0"
140
0.25
141
12.0
290
     0
  0
SCALE
  5
61
102
{ACAD_REACTORS
330
47
102
}
330
47
100
AcDbScale
 70
     0
300
3/8" = 1'-0"
140
0.375
141
12.0
290
     0
  0
SCALE
  5
62
102
{ACAD_REACTORS
330
47
102
}
330
47
100
AcDbScale
 70
     0
300
1/2" = 1'-0"
140
0.5
141
12.0
290
     0
  0
SCALE
  5
63
102
{ACAD_REACTORS
330
47
102
}
330
47
100
AcDbScale
 70
     0
300
3/4" = 1'-0"
140
0.75
141
12.0
290
     0
  0
SCALE
  5
64
102
{ACAD_REACTORS
330
47
102
}
330
47
100
AcDbScale
 70
     0
300
1" = 1'-0"
140
1.0
141
12.0
290
     0
  0
SCALE
  5
65
102
{ACAD_REACTORS
330
47
102
}
330
47
100
AcDbScale
 70
     0
300
1-1/2" = 1'-0"
140
1.5
141
12.0
290
     0
  0
SCALE
  5
66
102
{ACAD_REACTORS
330
47
102
}
330
47
100
AcDbScale
 70
     0
300
3" = 1'-0"
140
3.0
141
12.0
290
     0
  0
SCALE
  5
67
102
{ACAD_REACTORS
330
47
102
}
330
47
100
AcDbScale
 70
     0
300
6" = 1'-0"
140
6.0
141
12.0
290
     0
  0
SCALE
  5
68
102
{ACAD_REACTORS
330
47
102
}
330
47
100
AcDbScale
 70
     0
300
1'-0" = 1'-0"
140
12.0
141
12.0
290
     0
  0
ENDSEC
  0
EOF
