  0
SECTION
  2
HEADER
  9
$ACADVER
  1
AC1015
  9
$ACADMAINTVER
 70
     6
  9
$DWGCODEPAGE
  3
ANSI_1252
  9
$INSBASE
 10
0.0
 20
0.0
 30
0.0
  9
$EXTMIN
 10
3.6049574325
 20
5.1924392574
 30
0.0
  9
$EXTMAX
 10
671.5850307296
 20
596.3128490235
 30
0.0
  9
$LIMMIN
 10
0.0
 20
0.0
  9
$LIMMAX
 10
420.0
 20
297.0
  9
$ORTHOMODE
 70
     0
  9
$REGENMODE
 70
     1
  9
$FILLMODE
 70
     1
  9
$QTEXTMODE
 70
     0
  9
$MIRRTEXT
 70
     1
  9
$LTSCALE
 40
1.0
  9
$ATTMODE
 70
     1
  9
$TEXTSIZE
 40
3.5
  9
$TRACEWID
 40
1.0
  9
$TEXTSTYLE
  7
STANDARD
  9
$CLAYER
  8
0
  9
$CELTYPE
  6
ByLayer
  9
$CECOLOR
 62
   256
  9
$CELTSCALE
 40
1.0
  9
$DISPSILH
 70
     0
  9
$DIMSCALE
 40
1.0
  9
$DIMASZ
 40
3.302
  9
$DIMEXO
 40
1.0
  9
$DIMDLI
 40
3.75
  9
$DIMRND
 40
0.0
  9
$DIMDLE
 40
0.0
  9
$DIMEXE
 40
1.0
  9
$DIMTP
 40
0.0
  9
$DIMTM
 40
0.0
  9
$DIMTXT
 40
3.5
  9
$DIMCEN
 40
2.5
  9
$DIMTSZ
 40
0.0
  9
$DIMTOL
 70
     0
  9
$DIMLIM
 70
     0
  9
$DIMTIH
 70
     1
  9
$DIMTOH
 70
     1
  9
$DIMSE1
 70
     0
  9
$DIMSE2
 70
     0
  9
$DIMTAD
 70
     1
  9
$DIMZIN
 70
     0
  9
$DIMBLK
  1

  9
$DIMASO
 70
     1
  9
$DIMSHO
 70
     1
  9
$DIMPOST
  1

  9
$DIMAPOST
  1

  9
$DIMALT
 70
     0
  9
$DIMALTD
 70
     3
  9
$DIMALTF
 40
0.0393700787
  9
$DIMLFAC
 40
1.0
  9
$DIMTOFL
 70
     1
  9
$DIMTVP
 40
0.0
  9
$DIMTIX
 70
     0
  9
$DIMSOXD
 70
     0
  9
$DIMSAH
 70
     0
  9
$DIMBLK1
  1

  9
$DIMBLK2
  1

  9
$DIMSTYLE
  2
ISO-25
  9
$DIMCLRD
 70
     0
  9
$DIMCLRE
 70
     0
  9
$DIMCLRT
 70
     0
  9
$DIMTFAC
 40
1.0
  9
$DIMGAP
 40
1.524
  9
$DIMJUST
 70
     0
  9
$DIMSD1
 70
     0
  9
$DIMSD2
 70
     0
  9
$DIMTOLJ
 70
     0
  9
$DIMTZIN
 70
     0
  9
$DIMALTZ
 70
     0
  9
$DIMALTTZ
 70
     0
  9
$DIMUPT
 70
     0
  9
$DIMDEC
 70
     2
  9
$DIMTDEC
 70
     1
  9
$DIMALTU
 70
     2
  9
$DIMALTTD
 70
     3
  9
$DIMTXSTY
  7
STANDARD
  9
$DIMAUNIT
 70
     0
  9
$DIMADEC
 70
     1
  9
$DIMALTRND
 40
0.0
  9
$DIMAZIN
 70
     0
  9
$DIMDSEP
 70
    44
  9
$DIMATFIT
 70
     3
  9
$DIMFRAC
 70
     0
  9
$DIMLDRBLK
  1

  9
$DIMLUNIT
 70
     2
  9
$DIMLWD
 70
    -2
  9
$DIMLWE
 70
    -2
  9
$DIMTMOVE
 70
     0
  9
$LUNITS
 70
     2
  9
$LUPREC
 70
     2
  9
$SKETCHINC
 40
1.0
  9
$FILLETRAD
 40
10.0
  9
$AUNITS
 70
     0
  9
$AUPREC
 70
     1
  9
$MENU
  1
.
  9
$ELEVATION
 40
0.0
  9
$PELEVATION
 40
0.0
  9
$THICKNESS
 40
0.0
  9
$LIMCHECK
 70
     0
  9
$CHAMFERA
 40
0.0
  9
$CHAMFERB
 40
0.0
  9
$CHAMFERC
 40
0.0
  9
$CHAMFERD
 40
0.0
  9
$SKPOLY
 70
     0
  9
$TDCREATE
 40
2457078.578074074
  9
$TDUCREATE
 40
2457078.536407407
  9
$TDUPDATE
 40
2457078.578099074
  9
$TDUUPDATE
 40
2457078.536432407
  9
$TDINDWG
 40
0.0000000116
  9
$TDUSRTIMER
 40
0.0000000116
  9
$USRTIMER
 70
     1
  9
$ANGBASE
 50
0.0
  9
$ANGDIR
 70
     0
  9
$PDMODE
 70
     0
  9
$PDSIZE
 40
-1.0
  9
$PLINEWID
 40
0.0
  9
$SPLFRAME
 70
     0
  9
$SPLINETYPE
 70
     6
  9
$SPLINESEGS
 70
     8
  9
$HANDSEED
  5
D8
  9
$SURFTAB1
 70
     6
  9
$SURFTAB2
 70
     6
  9
$SURFTYPE
 70
     6
  9
$SURFU
 70
     6
  9
$SURFV
 70
     6
  9
$UCSBASE
  2

  9
$UCSNAME
  2

  9
$UCSORG
 10
0.0
 20
0.0
 30
0.0
  9
$UCSXDIR
 10
1.0
 20
0.0
 30
0.0
  9
$UCSYDIR
 10
0.0
 20
1.0
 30
0.0
  9
$UCSORTHOREF
  2

  9
$UCSORTHOVIEW
 70
     0
  9
$UCSORGTOP
 10
0.0
 20
0.0
 30
0.0
  9
$UCSORGBOTTOM
 10
0.0
 20
0.0
 30
0.0
  9
$UCSORGLEFT
 10
0.0
 20
0.0
 30
0.0
  9
$UCSORGRIGHT
 10
0.0
 20
0.0
 30
0.0
  9
$UCSORGFRONT
 10
0.0
 20
0.0
 30
0.0
  9
$UCSORGBACK
 10
0.0
 20
0.0
 30
0.0
  9
$PUCSBASE
  2

  9
$PUCSNAME
  2

  9
$PUCSORG
 10
0.0
 20
0.0
 30
0.0
  9
$PUCSXDIR
 10
1.0
 20
0.0
 30
0.0
  9
$PUCSYDIR
 10
0.0
 20
1.0
 30
0.0
  9
$PUCSORTHOREF
  2

  9
$PUCSORTHOVIEW
 70
     0
  9
$PUCSORGTOP
 10
0.0
 20
0.0
 30
0.0
  9
$PUCSORGBOTTOM
 10
0.0
 20
0.0
 30
0.0
  9
$PUCSORGLEFT
 10
0.0
 20
0.0
 30
0.0
  9
$PUCSORGRIGHT
 10
0.0
 20
0.0
 30
0.0
  9
$PUCSORGFRONT
 10
0.0
 20
0.0
 30
0.0
  9
$PUCSORGBACK
 10
0.0
 20
0.0
 30
0.0
  9
$USERI1
 70
     0
  9
$USERI2
 70
     0
  9
$USERI3
 70
     0
  9
$USERI4
 70
     0
  9
$USERI5
 70
     0
  9
$USERR1
 40
0.0
  9
$USERR2
 40
0.0
  9
$USERR3
 40
0.0
  9
$USERR4
 40
0.0
  9
$USERR5
 40
0.0
  9
$WORLDVIEW
 70
     1
  9
$SHADEDGE
 70
     3
  9
$SHADEDIF
 70
    70
  9
$TILEMODE
 70
     1
  9
$MAXACTVP
 70
    64
  9
$PINSBASE
 10
0.0
 20
0.0
 30
0.0
  9
$PLIMCHECK
 70
     0
  9
$PEXTMIN
 10
1.0000000000E+20
 20
1.0000000000E+20
 30
1.0000000000E+20
  9
$PEXTMAX
 10
-1.0000000000E+20
 20
-1.0000000000E+20
 30
-1.0000000000E+20
  9
$PLIMMIN
 10
0.0
 20
0.0
  9
$PLIMMAX
 10
420.0
 20
297.0
  9
$UNITMODE
 70
     0
  9
$VISRETAIN
 70
     1
  9
$PLINEGEN
 70
     0
  9
$PSLTSCALE
 70
     1
  9
$TREEDEPTH
 70
  3020
  9
$CMLSTYLE
  2
Standard
  9
$CMLJUST
 70
     0
  9
$CMLSCALE
 40
20.0
  9
$PROXYGRAPHICS
 70
     1
  9
$MEASUREMENT
 70
     1
  9
$CELWEIGHT
370
    -1
  9
$ENDCAPS
280
     0
  9
$JOINSTYLE
280
     0
  9
$LWDISPLAY
290
     1
  9
$INSUNITS
 70
     4
  9
$HYPERLINKBASE
  1

  9
$STYLESHEET
  1

  9
$XEDIT
290
     1
  9
$CEPSNTYPE
380
     0
  9
$PSTYLEMODE
290
     1
  9
$FINGERPRINTGUID
  2
{17A3A940-0A26-4B7E-BE6F-DE2BED922A83}
  9
$VERSIONGUID
  2
{FAEB1C32-E019-11D5-929B-00C0DF256EC4}
  9
$EXTNAMES
290
     1
  9
$PSVPSCALE
 40
0.0
  9
$OLESTARTUP
290
     0
  0
ENDSEC
  0
SECTION
  2
CLASSES
  0
CLASS
  1
ACDBDICTIONARYWDFLT
  2
AcDbDictionaryWithDefault
  3
ObjectDBX Classes
 90
        0
280
     0
281
     0
  0
CLASS
  1
VISUALSTYLE
  2
AcDbVisualStyle
  3
ObjectDBX Classes
 90
     4095
280
     0
281
     0
  0
CLASS
  1
MATERIAL
  2
AcDbMaterial
  3
ObjectDBX Classes
 90
     1153
280
     0
281
     0
  0
CLASS
  1
SCALE
  2
AcDbScale
  3
ObjectDBX Classes
 90
     1153
280
     0
281
     0
  0
CLASS
  1
SUN
  2
AcDbSun
  3
SCENEOE
 90
     1153
280
     0
281
     0
  0
CLASS
  1
ACDBPLACEHOLDER
  2
AcDbPlaceHolder
  3
ObjectDBX Classes
 90
        0
280
     0
281
     0
  0
CLASS
  1
LAYOUT
  2
AcDbLayout
  3
ObjectDBX Classes
 90
        0
280
     0
281
     0
  0
ENDSEC
  0
SECTION
  2
TABLES
  0
TABLE
  2
VPORT
  5
8
330
0
100
AcDbSymbolTable
 70
     1
  0
VPORT
  5
29
330
8
100
AcDbSymbolTableRecord
100
AcDbViewportTableRecord
  2
*Active
 70
     0
 10
0.0
 20
0.0
 11
1.0
 21
1.0
 12
337.594994081
 22
300.7526441405
 13
0.0
 23
0.0
 14
10.0
 24
10.0
 15
10.0
 25
10.0
 16
0.0
 26
0.0
 36
1.0
 17
0.0
 27
0.0
 37
0.0
 40
602.9428179614
 41
1.1300237012
 42
50.0
 43
0.0
 44
0.0
 50
0.0
 51
0.0
 71
     0
 72
   100
 73
     1
 74
     3
 75
     0
 76
     0
 77
     0
 78
     0
281
     0
 65
     1
110
0.0
120
0.0
130
0.0
111
1.0
121
0.0
131
0.0
112
0.0
122
1.0
132
0.0
 79
     0
146
0.0
  0
ENDTAB
  0
TABLE
  2
LTYPE
  5
5
330
0
100
AcDbSymbolTable
 70
     6
  0
LTYPE
  5
14
330
5
100
AcDbSymbolTableRecord
100
AcDbLinetypeTableRecord
  2
ByBlock
 70
     0
  3

 72
    65
 73
     0
 40
0.0
  0
LTYPE
  5
15
330
5
100
AcDbSymbolTableRecord
100
AcDbLinetypeTableRecord
  2
ByLayer
 70
     0
  3

 72
    65
 73
     0
 40
0.0
  0
LTYPE
  5
16
330
5
100
AcDbSymbolTableRecord
100
AcDbLinetypeTableRecord
  2
Continuous
 70
     0
  3
Solid line
 72
    65
 73
     0
 40
0.0
  0
LTYPE
  5
6A
330
5
100
AcDbSymbolTableRecord
100
AcDbLinetypeTableRecord
  2
HIDDEN
 70
     0
  3
Hidden __ __ __ __ __ __ __ __ __ __ __ __ __ __
 72
    65
 73
     2
 40
1.905
 49
1.27
 74
     0
 49
-0.635
 74
     0
  0
LTYPE
  5
6B
330
5
100
AcDbSymbolTableRecord
100
AcDbLinetypeTableRecord
  2
PHANTOM
 70
     0
  3
Phantom ______  __  __  ______  __  __  ______
 72
    65
 73
     6
 40
12.7
 49
6.35
 74
     0
 49
-1.27
 74
     0
 49
1.27
 74
     0
 49
-1.27
 74
     0
 49
1.27
 74
     0
 49
-1.27
 74
     0
  0
LTYPE
  5
6C
330
5
100
AcDbSymbolTableRecord
100
AcDbLinetypeTableRecord
  2
CENTER
 70
     0
  3
Center ____ _ ____ _ ____ _ ____ _ ____ _ ____
 72
    65
 73
     4
 40
10.16
 49
6.35
 74
     0
 49
-1.27
 74
     0
 49
1.27
 74
     0
 49
-1.27
 74
     0
  0
LTYPE
  5
6D
330
5
100
AcDbSymbolTableRecord
100
AcDbLinetypeTableRecord
  2
CENTERX2
 70
     0
  3
Center (2x) ________  __  ________  __  _____
 72
    65
 73
     4
 40
20.32
 49
12.7
 74
     0
 49
-2.54
 74
     0
 49
2.54
 74
     0
 49
-2.54
 74
     0
  0
LTYPE
  5
6E
330
5
100
AcDbSymbolTableRecord
100
AcDbLinetypeTableRecord
  2
DOT2
 70
     0
  3
Dot (.5x) ........................................
 72
    65
 73
     2
 40
0.635
 49
0.0
 74
     0
 49
-0.635
 74
     0
  0
ENDTAB
  0
TABLE
  2
LAYER
  5
2
330
0
100
AcDbSymbolTable
 70
     1
  0
LAYER
  5
10
330
2
100
AcDbSymbolTableRecord
100
AcDbLayerTableRecord
  2
0
 70
     0
 62
     7
  6
Continuous
370
    -3
390
F
  0
ENDTAB
  0
TABLE
  2
STYLE
  5
3
330
0
100
AcDbSymbolTable
 70
     1
  0
STYLE
  5
11
330
3
100
AcDbSymbolTableRecord
100
AcDbTextStyleTableRecord
  2
STANDARD
 70
     0
 40
0.0
 41
1.0
 50
0.0
 71
     0
 42
3.5
  3
GOTHIC.TTF
  4

1001
ACAD
1000
CENTURY GOTHIC
1071
       34
  0
ENDTAB
  0
TABLE
  2
VIEW
  5
6
330
0
100
AcDbSymbolTable
 70
     0
  0
ENDTAB
  0
TABLE
  2
UCS
  5
7
330
0
100
AcDbSymbolTable
 70
     0
  0
ENDTAB
  0
TABLE
  2
APPID
  5
9
330
0
100
AcDbSymbolTable
 70
     1
  0
APPID
  5
12
330
9
100
AcDbSymbolTableRecord
100
AcDbRegAppTableRecord
  2
ACAD
 70
     0
  0
ENDTAB
  0
TABLE
  2
DIMSTYLE
  5
A
330
0
100
AcDbSymbolTable
 70
     1
100
AcDbDimStyleTable
  0
DIMSTYLE
105
27
330
A
100
AcDbSymbolTableRecord
100
AcDbDimStyleTableRecord
  2
ISO-25
 70
     0
 41
2.5
 42
0.625
 43
3.75
 44
1.25
 73
     0
 74
     0
 77
     1
 78
     8
140
2.5
141
2.5
143
0.0393700787
147
0.625
171
     3
172
     1
178
     0
271
     2
272
     2
274
     3
278
    44
283
     0
284
     8
340
11
  0
ENDTAB
  0
TABLE
  2
BLOCK_RECORD
  5
1
330
0
100
AcDbSymbolTable
 70
     1
  0
BLOCK_RECORD
  5
1F
330
1
100
AcDbSymbolTableRecord
100
AcDbBlockTableRecord
  2
*Model_Space
340
22
  0
BLOCK_RECORD
  5
1B
330
1
100
AcDbSymbolTableRecord
100
AcDbBlockTableRecord
  2
*Paper_Space
340
1E
  0
BLOCK_RECORD
  5
23
330
1
100
AcDbSymbolTableRecord
100
AcDbBlockTableRecord
  2
*Paper_Space0
340
26
  0
ENDTAB
  0
ENDSEC
  0
SECTION
  2
BLOCKS
  0
BLOCK
  5
20
330
1F
100
AcDbEntity
  8
0
100
AcDbBlockBegin
  2
*Model_Space
 70
     0
 10
0.0
 20
0.0
 30
0.0
  3
*Model_Space
  1
*Model_Space
  0
ENDBLK
  5
21
330
1F
100
AcDbEntity
  8
0
100
AcDbBlockEnd
  0
BLOCK
  5
1C
330
1B
100
AcDbEntity
 67
     1
  8
0
100
AcDbBlockBegin
  2
*Paper_Space
 70
     0
 10
0.0
 20
0.0
 30
0.0
  3
*Paper_Space
  1
*Paper_Space
  0
ENDBLK
  5
1D
330
1B
100
AcDbEntity
 67
     1
  8
0
100
AcDbBlockEnd
  0
BLOCK
  5
24
330
23
100
AcDbEntity
  8
0
100
AcDbBlockBegin
  2
*Paper_Space0
 70
     0
 10
0.0
 20
0.0
 30
0.0
  3
*Paper_Space0
  1
*Paper_Space0
  0
ENDBLK
  5
25
330
23
100
AcDbEntity
  8
0
100
AcDbBlockEnd
  0
ENDSEC
  0
SECTION
  2
ENTITIES
  0
LWPOLYLINE
  5
72
330
1F
100
AcDbEntity
  8
0
  6
Continuous
 62
     7
370
    15
100
AcDbPolyline
 90
       31
 70
   128
 43
0.0
 10
344.0
 20
272.0
 10
345.5381748464
 20
279.4224975061
 10
347.1218362682
 20
286.8501063969
 10
348.981514935
 20
293.2148573962
 10
349.2779292945
 20
294.0280027147
 10
349.5892427388
 20
294.8353510579
 10
349.9162808996
 20
295.6365636917
 10
350.2598694088
 20
296.4313018826
 10
350.6208338983
 20
297.2192268966
 10
351.0
 20
298.0
 10
351.8373106087
 20
299.0968059129
 10
352.9836143382
 20
299.9450134879
 10
354.1128465089
 20
300.5598695472
 10
354.6138963471
 20
300.8086806486
 10
354.8312965926
 20
300.9160744477
 10
354.9260300907
 20
300.9631052782
 10
354.967506113
 20
300.9837711841
 10
354.9857131488
 20
300.99286014
 10
354.9937158294
 20
300.9968586098
 10
354.9972353622
 20
300.9986178161
 10
354.9987836364
 20
300.9993918444
 10
355.0
 20
301.0
 10
358.0716852788
 20
302.2793256826
 10
360.8984040118
 20
302.9533165572
 10
363.4881387221
 20
303.0712374528
 10
366.9458575146
 20
302.3132543993
 10
369.915263949
 20
300.5812285567
 10
372.4232990411
 20
298.0414287234
 10
374.4969038066
 20
294.8601236975
 10
376.1630192612
 20
291.2035822774
 10
377.4485864208
 20
287.2380732611
  0
LWPOLYLINE
  5
75
330
1F
100
AcDbEntity
  8
0
  6
Continuous
 62
     7
370
    15
100
AcDbPolyline
 90
       31
 70
   128
 43
0.0
 10
393.0
 20
239.0
 10
402.906804764
 20
249.76181647
 10
412.8510241797
 20
260.4833534831
 10
414.1431958123
 20
261.7859436036
 10
415.4499371806
 20
263.0728483972
 10
416.7728093277
 20
264.3423872931
 10
418.1133732968
 20
265.5928797207
 10
419.473190131
 20
266.8226451092
 10
420.8538208733
 20
268.0300028878
 10
422.1063248027
 20
269.0883552705
 10
425.5519335497
 20
271.6466996065
 10
427.9427983392
 20
273.0052381969
 10
430.3894474912
 20
273.9455490793
 10
432.8288126404
 20
274.3086275375
 10
435.1978254215
 20
273.9354688556
 10
437.3847754176
 20
272.7304612436
 10
439.3882389062
 20
271.451735705
 10
441.4615572097
 20
270.2313342419
 10
443.5191087107
 20
268.9920436763
 10
446.0899965938
 20
267.1768183315
 10
448.2776834516
 20
265.0077206587
 10
449.8167728351
 20
262.5506226193
 10
451.2243306139
 20
258.524512157
 10
451.5845122658
 20
254.2719987967
 10
451.2521907101
 20
251.9081481367
 10
450.0429417217
 20
248.5898075283
 10
447.8678630733
 20
244.8675873044
 10
445.2037677647
 20
241.3901730524
 10
442.3229176082
 20
238.0148881595
 10
439.4975744159
 20
234.5990560129
 10
437.0
 20
231.0
  0
LWPOLYLINE
  5
76
330
1F
100
AcDbEntity
  8
0
  6
Continuous
 62
     7
370
    15
100
AcDbPolyline
 90
       35
 70
   128
 43
0.0
 10
437.0
 20
231.0
 10
440.4123958099
 20
229.1837239876
 10
443.9330554932
 20
227.4899306335
 10
447.2371874298
 20
225.5511719627
 10
450.0
 20
223.0
 10
451.6869236653
 20
220.1718600976
 10
452.9169134109
 20
216.6538403955
 10
453.3114731516
 20
212.9174613845
 10
453.1736010607
 20
211.7283629805
 10
452.8711255061
 20
210.6049043373
 10
452.386102011
 20
209.5695609314
 10
451.5115671399
 20
208.3657609399
 10
450.2976397595
 20
206.7734189577
 10
449.0907997377
 20
205.1742548869
 10
441.3734731047
 20
195.1319004839
 10
437.7629409875
 20
190.9003185779
 10
436.0996417333
 20
189.1043079855
 10
435.3300898601
 20
188.2985308785
 10
434.2610759055
 20
187.1732973133
 10
433.1950323514
 20
186.0443185557
 10
432.1317790863
 20
184.9118116309
 10
431.0711359993
 20
183.7759935642
 10
418.972142689
 20
170.5119221474
 10
406.9201339622
 20
157.1691689496
 10
394.6390579948
 20
144.0803628632
 10
381.8528629626
 20
131.5781327804
 10
372.9117893499
 20
123.7334494642
 10
363.5417355423
 20
116.3958583662
 10
354.4570700757
 20
110.228397979
 10
345.0441198292
 20
104.7086659271
 10
335.3358456387
 20
99.6771126104
 10
325.4093901704
 20
95.0062190455
 10
309.5554064286
 20
88.0882085932
 10
293.6524931954
 20
81.2510799582
 10
278.0
 20
74.0
  0
LWPOLYLINE
  5
78
330
1F
100
AcDbEntity
  8
0
  6
Continuous
 62
     7
370
    15
100
AcDbPolyline
 90
       34
 70
   128
 43
0.0
 10
432.0
 20
224.0
 10
435.7540749804
 20
223.7632277511
 10
439.3011116351
 20
222.4562385737
 10
442.4169395886
 20
220.316947592
 10
444.7859529521
 20
217.3554953189
 10
445.8089829373
 20
214.6886530455
 10
445.9638025133
 20
211.8639989406
 10
445.379578891
 20
209.0847607368
 10
444.3453633804
 20
206.5025167266
 10
442.4332926569
 20
203.3551924807
 10
440.0449828803
 20
200.4706267068
 10
437.3255655261
 20
197.7668402608
 10
431.4739339875
 20
192.5736887775
 10
425.9975128982
 20
187.1459050765
 10
421.0921613916
 20
181.426059094
 10
415.6510271357
 20
175.5213993265
 10
409.5962942336
 20
170.1514390466
 10
403.3874248931
 20
164.8996437859
 10
397.5710661713
 20
159.2841228547
 10
392.2536864233
 20
153.2010784895
 10
387.1502847892
 20
146.8829666804
 10
381.9642093409
 20
140.5736715089
 10
375.9141025722
 20
133.9194483808
 10
369.3735779686
 20
127.8423495184
 10
362.2203967964
 20
122.6255312266
 10
354.4564583789
 20
118.3324955432
 10
346.3313903874
 20
114.5884052104
 10
335.8847337816
 20
109.9347543722
 10
325.6585628893
 20
104.9437016346
 10
315.5165535928
 20
99.8416730153
 10
305.2781102935
 20
94.9200844184
 10
294.9897985475
 20
90.0762972333
 10
284.8352524951
 20
84.9699011463
 10
275.0
 20
79.2572008189
  0
LWPOLYLINE
  5
79
330
1F
100
AcDbEntity
  8
0
  6
Continuous
 62
     7
370
    15
100
AcDbPolyline
 90
        7
 70
   128
 43
0.0
 10
432.0
 20
224.0
 10
418.359288496
 20
212.8591769944
 10
405.1924478318
 20
201.1631332768
 10
392.394118714
 20
189.0383845233
 10
379.8589418493
 20
176.61144641
 10
360.4390665262
 20
156.7771565072
 10
341.0
 20
137.0
  0
LWPOLYLINE
  5
87
330
1F
100
AcDbEntity
  8
0
  6
Continuous
 62
     7
370
    15
100
AcDbPolyline
 90
       18
 70
   128
 43
0.0
 10
275.0
 20
202.0
 10
273.5536178831
 20
203.1551033461
 10
271.9763143551
 20
204.2469422562
 10
270.5392457904
 20
205.6290298169
 10
270.153170772
 20
206.3561352055
 10
270.0493978562
 20
206.7080027617
 10
270.0181046042
 20
206.8697668915
 10
270.0072507182
 20
206.9423517781
 10
270.0030507717
 20
206.9745673511
 10
270.0013152334
 20
206.9887965361
 10
270.0005734473
 20
206.9950679363
 10
270.0002512987
 20
206.9978294
 10
270.0001103743
 20
206.9990448407
 10
270.0
 20
207.0
 10
269.1328598268
 20
218.7079231677
 10
268.9514309572
 20
230.4625983713
 10
269.0442866089
 20
242.2359743892
 10
269.0
 20
254.0
  0
LWPOLYLINE
  5
88
330
1F
100
AcDbEntity
  8
0
  6
Continuous
 62
     7
370
    15
100
AcDbPolyline
 90
       10
 70
   128
 43
0.0
 10
269.0
 20
254.0
 10
266.4149018129
 20
256.2397312451
 10
263.9167927872
 20
258.6685961202
 10
261.3274512263
 20
260.8991013346
 10
258.4686554338
 20
262.5437535978
 10
255.2062456345
 20
263.2271560812
 10
251.90995398
 20
262.9157800044
 10
248.6072865736
 20
262.0050154281
 10
245.302537289
 20
260.898532158
 10
242.0
 20
260.0
  0
LWPOLYLINE
  5
89
330
1F
100
AcDbEntity
  8
0
  6
Continuous
 62
     7
370
    15
100
AcDbPolyline
 90
       14
 70
   128
 43
0.0
 10
242.0
 20
260.0
 10
240.1355734207
 20
255.6672213649
 10
238.220014984
 20
251.3443820794
 10
237.1373083658
 20
247.4230713215
 10
237.0247487365
 20
246.4268821839
 10
237.0139139387
 20
246.2690060169
 10
237.0050301067
 20
246.1107506083
 10
236.9858381427
 20
245.6522106076
 10
236.940188819
 20
244.4991137084
 10
236.8965171991
 20
243.3459762995
 10
236.5890243483
 20
233.0484180988
 10
236.3708520888
 20
201.3728869661
 10
236.7310900057
 20
169.6855081387
 10
237.0
 20
138.0
  0
LWPOLYLINE
  5
8B
330
1F
100
AcDbEntity
  8
0
  6
Continuous
 62
     7
370
    15
100
AcDbPolyline
 90
       36
 70
   128
 43
0.0
 10
231.0
 20
138.0
 10
230.6666835381
 20
160.4163737032
 10
229.9727295929
 20
182.8504632164
 10
229.3771313249
 20
205.2797211451
 10
229.2608560301
 20
220.0694330057
 10
229.5193205867
 20
234.8407362973
 10
230.1615441871
 20
247.8191079646
 10
230.5916016193
 20
253.5223467971
 10
230.6681724444
 20
254.4181284028
 10
230.7472679695
 20
255.3137859862
 10
230.8289179202
 20
256.209318087
 10
230.9131520219
 20
257.104723245
 10
231.0
 20
258.0
 10
231.7899535117
 20
260.7591711629
 10
233.4314099193
 20
263.1834307462
 10
235.6987559972
 20
265.2962110856
 10
239.7797893157
 20
267.9326162474
 10
244.0
 20
270.0
 10
247.307283588
 20
271.2499645715
 10
250.9107430965
 20
272.12034024
 10
254.5719485527
 20
272.4335409655
 10
258.0524699841
 20
272.0119807077
 10
260.5465696897
 20
271.0263667747
 10
262.7349932612
 20
269.380757959
 10
265.0900685201
 20
267.6131652029
 10
267.5572830503
 20
265.9088741107
 10
269.99134607
 20
264.1754438995
 10
273.0667061108
 20
261.5236806332
 10
275.3936413523
 20
258.379963251
 10
276.03390134
 20
256.9051078533
 10
277.0372605306
 20
253.7461280923
 10
277.8362538016
 20
250.5383723601
 10
278.4598671503
 20
247.2887587387
 10
279.5754374669
 20
237.2566744344
 10
280.1532890501
 20
227.0962529129
 10
281.0
 20
217.0
  0
LWPOLYLINE
  5
9A
330
1F
100
AcDbEntity
  8
0
  6
Continuous
 62
     7
370
    15
100
AcDbPolyline
 90
       32
 70
   128
 43
0.0
 10
379.329364408
 20
287.2380732611
 10
380.9805036863
 20
294.1522058066
 10
382.6835703952
 20
301.6427564276
 10
384.6084843293
 20
309.2499048155
 10
386.0829881988
 20
314.111152927
 10
387.7769970436
 20
318.6906967999
 10
388.1924327011
 20
319.6665668851
 10
388.6219450201
 20
320.6200825855
 10
389.0660866704
 20
321.5497483207
 10
389.5254103214
 20
322.4540685102
 10
390.0004686429
 20
323.3315475737
 10
390.4918143044
 20
324.1806899307
 10
390.9999999756
 20
325.0000000008
 10
392.0870308876
 20
326.2494918214
 10
393.4900328256
 20
327.2116197368
 10
394.876056695
 20
327.7733912094
 10
395.5051244088
 20
327.9250565898
 10
395.7824823315
 20
327.9719452473
 10
395.9043612797
 20
327.9886192183
 10
395.9579344497
 20
327.9951798681
 10
395.9814943254
 20
327.9979155042
 10
395.9918581198
 20
327.9990898696
 10
395.9964176813
 20
327.999600909
 10
395.9984237888
 20
327.9998246659
 10
395.9999999732
 20
328.0000000031
 10
400.5102507067
 20
328.2908352386
 10
404.315993942
 20
328.057124619
 10
407.500161895
 20
327.2695931813
 10
410.1456867815
 20
325.8989659624
 10
412.9785037143
 20
323.1138264209
 10
415.1977480907
 20
319.170635274
 10
416.9999999776
 20
314.000000017
  0
CIRCLE
  5
9B
330
1F
100
AcDbEntity
  8
0
  6
Continuous
 62
     7
370
    15
100
AcDbCircle
 10
120.955358382
 20
235.2696063274
 30
0.0
 40
1.149170738634183
  0
LWPOLYLINE
  5
9C
330
1F
100
AcDbEntity
  8
0
  6
Continuous
 62
     7
370
    15
100
AcDbPolyline
 90
       40
 70
   128
 43
0.0
 10
13.0
 20
7.0
 10
11.0112277877
 20
9.5198610616
 10
8.833683363
 20
11.9595831849
 10
6.7505250445
 20
14.4393747774
 10
5.0449111507
 20
17.0794442466
 10
4.0
 20
20.0
 10
3.6049574325
 20
24.859664455
 10
4.2343916447
 20
29.7815012855
 10
5.5388845152
 20
33.9523734278
 10
6.3128572328
 20
35.6905590575
 10
6.6893484883
 20
36.4305124076
 10
6.8617267904
 20
36.7507642219
 10
6.9388545084
 20
36.8905995431
 10
6.9730370414
 20
36.9519151204
 10
6.9881249006
 20
36.9788526185
 10
6.9947727508
 20
36.990697084
 10
6.9976995835
 20
36.9959070912
 10
7.0
 20
37.0
 10
95.1040437174
 20
192.6539485179
 10
184.016662916
 20
347.8495685636
 10
262.8064148921
 20
484.1078276024
 10
297.6074976796
 20
543.9836019269
 10
312.9423350206
 20
570.3157388789
 10
319.6936941684
 20
581.8994821753
 10
322.6650471252
 20
586.9958787421
 10
323.0541865686
 20
587.6632438688
 10
323.4433337762
 20
588.3306043531
 10
323.8324887355
 20
588.9979602018
 10
324.2216514342
 20
589.6653114214
 10
324.6108218598
 20
590.3326580186
 10
325.0
 20
591.0
 10
326.1414799449
 20
592.5204302024
 10
327.6038150473
 20
593.8054339934
 10
329.2954101773
 20
594.8302226831
 10
331.1246702048
 20
595.5700075818
 10
333.0
 20
596.0
 10
336.3645008975
 20
596.3128490235
 10
339.8001475601
 20
596.2025705151
 10
343.0857204426
 20
595.4910067491
 10
346.0
 20
594.0
  0
LWPOLYLINE
  5
A0
330
1F
100
AcDbEntity
  8
0
  6
Continuous
 62
     7
370
    15
100
AcDbPolyline
 90
        3
 70
   128
 43
0.0
 10
626.0852818267
 20
28.0000000031
 10
621.5421125348
 20
26.9080746607
 10
618.0
 20
26.0
  0
LWPOLYLINE
  5
A3
330
1F
100
AcDbEntity
  8
0
  6
Continuous
 62
     7
370
    15
100
AcDbPolyline
 90
        6
 70
   128
 43
0.0
 10
634.0
 20
39.0
 10
632.9774759476
 20
35.9391198361
 10
631.9875370388
 20
32.8532955113
 10
631.2444914782
 20
31.4087723947
 10
630.2146185533
 20
30.1838176816
 10
628.5672329954
 20
29.0399271524
  0
LWPOLYLINE
  5
A5
330
1F
100
AcDbEntity
  8
0
  6
Continuous
 62
     7
370
    15
100
AcDbPolyline
 90
        3
 70
   128
 43
0.0
 10
345.4948059444
 20
546.1302372964
 10
345.7775726712
 20
546.056388171
 10
346.0
 20
546.0
  0
LWPOLYLINE
  5
A8
330
1F
100
AcDbEntity
  8
0
  6
Continuous
 62
     7
370
    15
100
AcDbPolyline
 90
        9
 70
   128
 43
0.0
 10
330.0
 20
547.0
 10
331.2452432318
 20
547.7969047289
 10
332.4865219846
 20
548.6133053202
 10
333.8143983106
 20
549.0038506138
 10
334.4527502172
 20
548.9657378188
 10
335.4164248749
 20
548.8549690361
 10
336.3730296099
 20
548.6985644636
 10
338.6057101702
 20
548.1867686342
 10
342.5503700482
 20
546.999999992
  0
LWPOLYLINE
  5
AA
330
1F
100
AcDbEntity
  8
0
  6
Continuous
 62
     7
370
    15
100
AcDbPolyline
 90
       52
 70
   128
 43
0.0
 10
346.0
 20
594.0
 10
349.0209405702
 20
591.4105553981
 10
351.6837878445
 20
588.4297497212
 10
354.064777928
 20
585.1678075685
 10
356.9052893227
 20
580.6183464249
 10
358.0867920373
 20
578.5875626653
 10
358.5992819864
 20
577.6968660956
 10
358.8238493243
 20
577.3062322621
 10
358.9225217384
 20
577.134661199
 10
358.9659146556
 20
577.0592347594
 10
358.9850034053
 20
577.0260601224
 10
358.9934016811
 20
577.0114658363
 10
358.9970967749
 20
577.0050448481
 10
359.0
 20
577.0
 10
446.8781828292
 20
424.5714177568
 10
534.5149494883
 20
272.002138421
 10
572.8120213903
 20
204.7235833145
 10
610.8604332231
 20
137.3058063371
 10
644.0883486201
 20
77.8358261338
 10
658.6216575225
 20
51.620476909
 10
664.9980710732
 20
40.0755436714
 10
667.8000416959
 20
34.9937359423
 10
668.1667990025
 20
34.3281677245
 10
668.5335173513
 20
33.6625777742
 10
668.9001966837
 20
32.9969660589
 10
669.2668369416
 20
32.3313325464
 10
669.6334380665
 20
31.6656772042
 10
670.0
 20
31.0
 10
671.1987888795
 20
27.8060400456
 10
671.5850307296
 20
24.3183205133
 10
671.27187814
 20
20.7275809581
 10
670.3724837003
 20
17.2245609352
 10
669.0
 20
14.0
 10
666.8653224706
 20
10.957829001
 10
663.9709575364
 20
8.4197830054
 10
662.1204891452
 20
7.3252753929
 10
660.1659300362
 20
6.5287690824
 10
658.3980549785
 20
6.1142331134
 10
657.6149230015
 20
6.0260859408
 10
657.2704212439
 20
6.0066907816
 10
657.1189486057
 20
6.0020081077
 10
657.0523295328
 20
6.0007016172
 10
657.0230234109
 20
6.0002734202
 10
657.0101299888
 20
6.0001134669
 10
657.0044571342
 20
6.0000486011
 10
657.0019611272
 20
6.0000211281
 10
657.0
 20
6.0
 10
528.204593266
 20
5.1924392574
 10
399.4051674242
 20
5.2664941646
 10
270.6034449495
 20
5.8443294431
 10
141.8011483165
 20
6.5481098144
 10
13.0
 20
7.0
  0
LINE
  5
AC
330
1F
100
AcDbEntity
  8
0
  6
Continuous
 62
     7
370
    15
100
AcDbLine
 10
379.329364408
 20
287.2380732611
 30
0.0
 11
374.0
 21
266.0
 31
0.0
  0
LINE
  5
AD
330
1F
100
AcDbEntity
  8
0
  6
Continuous
 62
     7
370
    15
100
AcDbLine
 10
373.0
 20
268.0
 30
0.0
 11
377.4485864208
 21
287.2380732611
 31
0.0
  0
LINE
  5
AE
330
1F
100
AcDbEntity
  8
0
  6
Continuous
 62
     7
370
    15
100
AcDbLine
 10
404.0
 20
256.0
 30
0.0
 11
361.0
 21
263.0
 31
0.0
  0
LINE
  5
AF
330
1F
100
AcDbEntity
  8
0
  6
Continuous
 62
     7
370
    15
100
AcDbLine
 10
373.0
 20
268.0
 30
0.0
 11
344.0
 21
272.0
 31
0.0
  0
LINE
  5
B0
330
1F
100
AcDbEntity
  8
0
  6
Continuous
 62
     7
370
    15
100
AcDbLine
 10
361.0
 20
263.0
 30
0.0
 11
393.0
 21
239.0
 31
0.0
  0
LINE
  5
B1
330
1F
100
AcDbEntity
  8
0
  6
Continuous
 62
     7
370
    15
100
AcDbLine
 10
278.0
 20
74.0
 30
0.0
 11
275.0
 21
79.2572008189
 31
0.0
  0
LINE
  5
B2
330
1F
100
AcDbEntity
  8
0
  6
Continuous
 62
     7
370
    15
100
AcDbLine
 10
341.0
 20
137.0
 30
0.0
 11
338.0
 21
143.0
 31
0.0
  0
LINE
  5
B3
330
1F
100
AcDbEntity
  8
0
  6
Continuous
 62
     7
370
    15
100
AcDbLine
 10
338.0
 20
143.0
 30
0.0
 11
443.0
 21
252.0
 31
0.0
  0
LINE
  5
B4
330
1F
100
AcDbEntity
  8
0
  6
Continuous
 62
     7
370
    15
100
AcDbLine
 10
443.0
 20
252.0
 30
0.0
 11
442.0
 21
262.0
 31
0.0
  0
LINE
  5
B5
330
1F
100
AcDbEntity
  8
0
  6
Continuous
 62
     7
370
    15
100
AcDbLine
 10
442.0
 20
262.0
 30
0.0
 11
428.0
 21
265.0
 31
0.0
  0
LINE
  5
B6
330
1F
100
AcDbEntity
  8
0
  6
Continuous
 62
     7
370
    15
100
AcDbLine
 10
428.0
 20
265.0
 30
0.0
 11
319.0
 21
158.0
 31
0.0
  0
LINE
  5
B7
330
1F
100
AcDbEntity
  8
0
  6
Continuous
 62
     7
370
    15
100
AcDbLine
 10
319.0
 20
158.0
 30
0.0
 11
315.0
 21
165.0
 31
0.0
  0
LINE
  5
B8
330
1F
100
AcDbEntity
  8
0
  6
Continuous
 62
     7
370
    15
100
AcDbLine
 10
315.0
 20
165.0
 30
0.0
 11
384.0
 21
234.0
 31
0.0
  0
LINE
  5
B9
330
1F
100
AcDbEntity
  8
0
  6
Continuous
 62
     7
370
    15
100
AcDbLine
 10
384.0
 20
234.0
 30
0.0
 11
364.0
 21
244.0
 31
0.0
  0
LINE
  5
BA
330
1F
100
AcDbEntity
  8
0
  6
Continuous
 62
     7
370
    15
100
AcDbLine
 10
364.0
 20
244.0
 30
0.0
 11
296.0
 21
179.0
 31
0.0
  0
LINE
  5
BB
330
1F
100
AcDbEntity
  8
0
  6
Continuous
 62
     7
370
    15
100
AcDbLine
 10
296.0
 20
179.0
 30
0.0
 11
294.0
 21
183.0
 31
0.0
  0
LINE
  5
BC
330
1F
100
AcDbEntity
  8
0
  6
Continuous
 62
     7
370
    15
100
AcDbLine
 10
294.0
 20
183.0
 30
0.0
 11
358.0
 21
250.0
 31
0.0
  0
LINE
  5
BD
330
1F
100
AcDbEntity
  8
0
  6
Continuous
 62
     7
370
    15
100
AcDbLine
 10
358.0
 20
250.0
 30
0.0
 11
338.0
 21
260.0
 31
0.0
  0
LINE
  5
BE
330
1F
100
AcDbEntity
  8
0
  6
Continuous
 62
     7
370
    15
100
AcDbLine
 10
338.0
 20
260.0
 30
0.0
 11
275.0
 21
202.0
 31
0.0
  0
LINE
  5
BF
330
1F
100
AcDbEntity
  8
0
  6
Continuous
 62
     7
370
    15
100
AcDbLine
 10
237.0
 20
138.0
 30
0.0
 11
231.0
 21
138.0
 31
0.0
  0
LINE
  5
C0
330
1F
100
AcDbEntity
  8
0
  6
Continuous
 62
     7
370
    15
100
AcDbLine
 10
281.0
 20
217.0
 30
0.0
 11
332.0
 21
267.0
 31
0.0
  0
LINE
  5
C1
330
1F
100
AcDbEntity
  8
0
  6
Continuous
 62
     7
370
    15
100
AcDbLine
 10
332.0
 20
267.0
 30
0.0
 11
318.0
 21
276.0
 31
0.0
  0
LINE
  5
C2
330
1F
100
AcDbEntity
  8
0
  6
Continuous
 62
     7
370
    15
100
AcDbLine
 10
318.0
 20
276.0
 30
0.0
 11
321.0
 21
280.0
 31
0.0
  0
LINE
  5
C3
330
1F
100
AcDbEntity
  8
0
  6
Continuous
 62
     7
370
    15
100
AcDbLine
 10
342.1592312301
 20
266.2543038613
 30
0.0
 11
321.0
 21
280.0
 31
0.0
  0
LINE
  5
C4
330
1F
100
AcDbEntity
  8
0
  6
Continuous
 62
     7
370
    15
100
AcDbLine
 10
328.9489344149
 20
277.1931652134
 30
0.0
 11
342.1592312301
 21
266.2543038613
 31
0.0
  0
LINE
  5
C5
330
1F
100
AcDbEntity
  8
0
  6
Continuous
 62
     7
370
    15
100
AcDbLine
 10
333.8074166591
 20
283.060502814
 30
0.0
 11
328.9489344149
 21
277.1931652134
 31
0.0
  0
LINE
  5
C6
330
1F
100
AcDbEntity
  8
0
  6
Continuous
 62
     7
370
    15
100
AcDbLine
 10
342.1592312301
 20
277.1931652134
 30
0.0
 11
333.8074166591
 21
283.060502814
 31
0.0
  0
LINE
  5
C7
330
1F
100
AcDbEntity
  8
0
  6
Continuous
 62
     7
370
    15
100
AcDbLine
 10
347.5463246845
 20
297.1673546897
 30
0.0
 11
342.1592312301
 21
277.1931652134
 31
0.0
  0
LINE
  5
C8
330
1F
100
AcDbEntity
  8
0
  6
Continuous
 62
     7
370
    15
100
AcDbLine
 10
378.1119670245
 20
298.450076563
 30
0.0
 11
385.7446311986
 21
323.2241302995
 31
0.0
  0
LINE
  5
C9
330
1F
100
AcDbEntity
  8
0
  6
Continuous
 62
     7
370
    15
100
AcDbLine
 10
420.8033969624
 20
318.1891316788
 30
0.0
 11
404.0
 21
256.0
 31
0.0
  0
LINE
  5
CA
330
1F
100
AcDbEntity
  8
0
  6
Continuous
 62
     7
370
    15
100
AcDbLine
 10
403.0
 20
261.0
 30
0.0
 11
374.0
 21
266.0
 31
0.0
  0
LINE
  5
CB
330
1F
100
AcDbEntity
  8
0
  6
Continuous
 62
     7
370
    15
100
AcDbLine
 10
416.9999999776
 20
314.000000017
 30
0.0
 11
403.0
 21
261.0
 31
0.0
  0
LINE
  5
CC
330
1F
100
AcDbEntity
  8
0
  6
Continuous
 62
     7
370
    15
100
AcDbLine
 10
41.0
 20
39.0
 30
0.0
 11
41.25
 21
39.5
 31
0.0
  0
LINE
  5
CD
330
1F
100
AcDbEntity
  8
0
  6
Continuous
 62
     7
370
    15
100
AcDbLine
 10
47.0
 20
28.0
 30
0.0
 11
41.0
 21
39.0
 31
0.0
  0
LINE
  5
CE
330
1F
100
AcDbEntity
  8
0
  6
Continuous
 62
     7
370
    15
100
AcDbLine
 10
618.0
 20
26.0
 30
0.0
 11
47.0
 21
28.0
 31
0.0
  0
LINE
  5
CF
330
1F
100
AcDbEntity
  8
0
  6
Continuous
 62
     7
370
    15
100
AcDbLine
 10
628.0
 20
28.0
 30
0.0
 11
626.0852818277
 21
28.0
 31
0.0
  0
LINE
  5
D0
330
1F
100
AcDbEntity
  8
0
  6
Continuous
 62
     7
370
    15
100
AcDbLine
 10
628.5672329938
 20
29.0399271553
 30
0.0
 11
628.0
 21
28.0
 31
0.0
  0
LINE
  5
D1
330
1F
100
AcDbEntity
  8
0
  6
Continuous
 62
     7
370
    15
100
AcDbLine
 10
346.0
 20
546.0
 30
0.0
 11
634.0
 21
39.0
 31
0.0
  0
LINE
  5
D2
330
1F
100
AcDbEntity
  8
0
  6
Continuous
 62
     7
370
    15
100
AcDbLine
 10
345.0
 20
547.0
 30
0.0
 11
345.4948059454
 21
546.1302373001
 31
0.0
  0
LINE
  5
D3
330
1F
100
AcDbEntity
  8
0
  6
Continuous
 62
     7
370
    15
100
AcDbLine
 10
342.5503700507
 20
547.0
 30
0.0
 11
345.0
 21
547.0
 31
0.0
  0
LINE
  5
D4
330
1F
100
AcDbEntity
  8
0
  6
Continuous
 62
     7
370
    15
100
AcDbLine
 10
41.0
 20
40.0
 30
0.0
 11
330.0
 21
547.0
 31
0.0
  0
LINE
  5
D5
330
1F
100
AcDbEntity
  8
0
  6
Continuous
 62
     7
370
    15
100
AcDbLine
 10
41.25
 20
39.5
 30
0.0
 11
41.0
 21
40.0
 31
0.0
  0
ARC
  5
D6
330
1F
100
AcDbEntity
  8
0
  6
Continuous
 62
     7
370
    15
100
AcDbCircle
 10
363.1394939716
 20
290.413511922
 30
0.0
 40
16.99297856612583
100
AcDbArc
 50
28.2249459926
 51
156.5811987115
  0
ARC
  5
D7
330
1F
100
AcDbEntity
  8
0
  6
Continuous
 62
     7
370
    15
100
AcDbCircle
 10
402.1693196798
 20
313.0146284383
 30
0.0
 40
19.33919129537383
100
AcDbArc
 50
15.5194599008
 51
148.1351284778
  0
ENDSEC
  0
SECTION
  2
OBJECTS
  0
DICTIONARY
  5
C
330
0
100
AcDbDictionary
281
     1
  3
ACAD_GROUP
350
D
  3
ACAD_LAYOUT
350
1A
  3
ACAD_MLINESTYLE
350
17
  3
ACAD_PLOTSETTINGS
350
19
  3
ACAD_PLOTSTYLENAME
350
E
  3
ACAD_SCALELIST
350
47
  0
DICTIONARY
  5
D
102
{ACAD_REACTORS
330
C
102
}
330
C
100
AcDbDictionary
281
     1
  0
DICTIONARY
  5
1A
102
{ACAD_REACTORS
330
C
102
}
330
C
100
AcDbDictionary
281
     1
  3
Layout1
350
1E
  3
Layout2
350
26
  3
Model
350
22
  0
DICTIONARY
  5
17
102
{ACAD_REACTORS
330
C
102
}
330
C
100
AcDbDictionary
281
     1
  3
Standard
350
18
  0
DICTIONARY
  5
19
102
{ACAD_REACTORS
330
C
102
}
330
C
100
AcDbDictionary
281
     1
  0
ACDBDICTIONARYWDFLT
  5
E
102
{ACAD_REACTORS
330
C
102
}
330
C
100
AcDbDictionary
281
     1
  3
Normal
350
F
100
AcDbDictionaryWithDefault
340
F
  0
DICTIONARY
  5
47
102
{ACAD_REACTORS
330
C
102
}
330
C
100
AcDbDictionary
281
     1
  3
A0
350
48
  3
A1
350
49
  3
A2
350
4A
  3
A3
350
4B
  3
A4
350
4C
  3
A5
350
4D
  3
A6
350
4E
  3
A7
350
4F
  3
A8
350
50
  3
A9
350
51
  3
B0
350
52
  3
B1
350
53
  3
B2
350
54
  3
B3
350
55
  3
B4
350
56
  3
B5
350
57
  3
B6
350
58
  3
B7
350
59
  3
B8
350
5A
  3
B9
350
5B
  3
C0
350
5C
  3
C1
350
5D
  3
C2
350
5E
  3
C3
350
5F
  3
C4
350
60
  3
C5
350
61
  3
C6
350
62
  3
C7
350
63
  3
C8
350
64
  3
C9
350
65
  3
D0
350
66
  3
D1
350
67
  3
D2
350
68
  0
LAYOUT
  5
1E
102
{ACAD_REACTORS
330
1A
102
}
330
1A
100
AcDbPlotSettings
  1

  2
none_device
  4

  6

 40
0.0
 41
0.0
 42
0.0
 43
0.0
 44
0.0
 45
0.0
 46
0.0
 47
0.0
 48
0.0
 49
0.0
140
0.0
141
0.0
142
1.0
143
1.0
 70
   688
 72
     1
 73
     0
 74
     5
  7

 75
    16
147
1.0
148
0.0
149
0.0
100
AcDbLayout
  1
Layout1
 70
     1
 71
     1
 10
0.0
 20
0.0
 11
420.0
 21
297.0
 12
0.0
 22
0.0
 32
0.0
 14
1.0000000000E+20
 24
1.0000000000E+20
 34
1.0000000000E+20
 15
-1.0000000000E+20
 25
-1.0000000000E+20
 35
-1.0000000000E+20
146
0.0
 13
0.0
 23
0.0
 33
0.0
 16
1.0
 26
0.0
 36
0.0
 17
0.0
 27
1.0
 37
0.0
 76
     0
330
1B
  0
LAYOUT
  5
26
102
{ACAD_REACTORS
330
1A
102
}
330
1A
100
AcDbPlotSettings
  1

  2
none_device
  4

  6

 40
0.0
 41
0.0
 42
0.0
 43
0.0
 44
0.0
 45
0.0
 46
0.0
 47
0.0
 48
0.0
 49
0.0
140
0.0
141
0.0
142
1.0
143
1.0
 70
   688
 72
     1
 73
     0
 74
     5
  7

 75
    16
147
1.0
148
0.0
149
0.0
100
AcDbLayout
  1
Layout2
 70
     1
 71
     2
 10
0.0
 20
0.0
 11
0.0
 21
0.0
 12
0.0
 22
0.0
 32
0.0
 14
0.0
 24
0.0
 34
0.0
 15
0.0
 25
0.0
 35
0.0
146
0.0
 13
0.0
 23
0.0
 33
0.0
 16
1.0
 26
0.0
 36
0.0
 17
0.0
 27
1.0
 37
0.0
 76
     0
330
23
  0
LAYOUT
  5
22
102
{ACAD_REACTORS
330
1A
102
}
330
1A
100
AcDbPlotSettings
  1

  2
none_device
  4
ANSI_A_(11.00_x_8.50_Inches)
  6

 40
6.35
 41
19.05
 42
6.35000508
 43
19.05000254
 44
279.4
 45
215.9
 46
11.2802965366
 47
-19.8480158017
 48
0.0
 49
0.0
140
0.0
141
0.0
142
0.0142356783
143
1.0
 70
  1696
 72
     0
 73
     0
 74
     0
  7

 75
     0
147
0.0179189148
148
-1300.4909072572
149
0.0
100
AcDbLayout
  1
Model
 70
     1
 71
     0
 10
0.0
 20
0.0
 11
420.0
 21
297.0
 12
0.0
 22
0.0
 32
0.0
 14
3.6049574325
 24
5.1924392574
 34
0.0
 15
671.5850307296
 25
596.3128490235
 35
0.0
146
0.0
 13
0.0
 23
0.0
 33
0.0
 16
1.0
 26
0.0
 36
0.0
 17
0.0
 27
1.0
 37
0.0
 76
     0
330
1F
331
29
  0
MLINESTYLE
  5
18
102
{ACAD_REACTORS
330
17
102
}
330
17
100
AcDbMlineStyle
  2
Standard
 70
     0
  3

 62
   256
 51
90.0
 52
90.0
 71
     2
 49
0.5
 62
   256
  6
BYLAYER
 49
-0.5
 62
   256
  6
BYLAYER
  0
ACDBPLACEHOLDER
  5
F
102
{ACAD_REACTORS
330
E
102
}
330
E
  0
SCALE
  5
48
102
{ACAD_REACTORS
330
47
102
}
330
47
100
AcDbScale
 70
     0
300
1:1
140
1.0
141
1.0
290
     1
  0
SCALE
  5
49
102
{ACAD_REACTORS
330
47
102
}
330
47
100
AcDbScale
 70
     0
300
1:2
140
1.0
141
2.0
290
     0
  0
SCALE
  5
4A
102
{ACAD_REACTORS
330
47
102
}
330
47
100
AcDbScale
 70
     0
300
1:4
140
1.0
141
4.0
290
     0
  0
SCALE
  5
4B
102
{ACAD_REACTORS
330
47
102
}
330
47
100
AcDbScale
 70
     0
300
1:5
140
1.0
141
5.0
290
     0
  0
SCALE
  5
4C
102
{ACAD_REACTORS
330
47
102
}
330
47
100
AcDbScale
 70
     0
300
1:8
140
1.0
141
8.0
290
     0
  0
SCALE
  5
4D
102
{ACAD_REACTORS
330
47
102
}
330
47
100
AcDbScale
 70
     0
300
1:10
140
1.0
141
10.0
290
     0
  0
SCALE
  5
4E
102
{ACAD_REACTORS
330
47
102
}
330
47
100
AcDbScale
 70
     0
300
1:16
140
1.0
141
16.0
290
     0
  0
SCALE
  5
4F
102
{ACAD_REACTORS
330
47
102
}
330
47
100
AcDbScale
 70
     0
300
1:20
140
1.0
141
20.0
290
     0
  0
SCALE
  5
50
102
{ACAD_REACTORS
330
47
102
}
330
47
100
AcDbScale
 70
     0
300
1:30
140
1.0
141
30.0
290
     0
  0
SCALE
  5
51
102
{ACAD_REACTORS
330
47
102
}
330
47
100
AcDbScale
 70
     0
300
1:40
140
1.0
141
40.0
290
     0
  0
SCALE
  5
52
102
{ACAD_REACTORS
330
47
102
}
330
47
100
AcDbScale
 70
     0
300
1:50
140
1.0
141
50.0
290
     0
  0
SCALE
  5
53
102
{ACAD_REACTORS
330
47
102
}
330
47
100
AcDbScale
 70
     0
300
1:100
140
1.0
141
100.0
290
     0
  0
SCALE
  5
54
102
{ACAD_REACTORS
330
47
102
}
330
47
100
AcDbScale
 70
     0
300
2:1
140
2.0
141
1.0
290
     0
  0
SCALE
  5
55
102
{ACAD_REACTORS
330
47
102
}
330
47
100
AcDbScale
 70
     0
300
4:1
140
4.0
141
1.0
290
     0
  0
SCALE
  5
56
102
{ACAD_REACTORS
330
47
102
}
330
47
100
AcDbScale
 70
     0
300
8:1
140
8.0
141
1.0
290
     0
  0
SCALE
  5
57
102
{ACAD_REACTORS
330
47
102
}
330
47
100
AcDbScale
 70
     0
300
10:1
140
10.0
141
1.0
290
     0
  0
SCALE
  5
58
102
{ACAD_REACTORS
330
47
102
}
330
47
100
AcDbScale
 70
     0
300
100:1
140
100.0
141
1.0
290
     0
  0
SCALE
  5
59
102
{ACAD_REACTORS
330
47
102
}
330
47
100
AcDbScale
 70
     0
300
1/128" = 1'-0"
140
0.0078125
141
12.0
290
     0
  0
SCALE
  5
5A
102
{ACAD_REACTORS
330
47
102
}
330
47
100
AcDbScale
 70
     0
300
1/64" = 1'-0"
140
0.015625
141
12.0
290
     0
  0
SCALE
  5
5B
102
{ACAD_REACTORS
330
47
102
}
330
47
100
AcDbScale
 70
     0
300
1/32" = 1'-0"
140
0.03125
141
12.0
290
     0
  0
SCALE
  5
5C
102
{ACAD_REACTORS
330
47
102
}
330
47
100
AcDbScale
 70
     0
300
1/16" = 1'-0"
140
0.0625
141
12.0
290
     0
  0
SCALE
  5
5D
102
{ACAD_REACTORS
330
47
102
}
330
47
100
AcDbScale
 70
     0
300
3/32" = 1'-0"
140
0.09375
141
12.0
290
     0
  0
SCALE
  5
5E
102
{ACAD_REACTORS
330
47
102
}
330
47
100
AcDbScale
 70
     0
300
1/8" = 1'-0"
140
0.125
141
12.0
290
     0
  0
SCALE
  5
5F
102
{ACAD_REACTORS
330
47
102
}
330
47
100
AcDbScale
 70
     0
300
3/16" = 1'-0"
140
0.1875
141
12.0
290
     0
  0
SCALE
  5
60
102
{ACAD_REACTORS
330
47
102
}
330
47
100
AcDbScale
 70
     0
300
1/4" = 1'-0"
140
0.25
141
12.0
290
     0
  0
SCALE
  5
61
102
{ACAD_REACTORS
330
47
102
}
330
47
100
AcDbScale
 70
     0
300
3/8" = 1'-0"
140
0.375
141
12.0
290
     0
  0
SCALE
  5
62
102
{ACAD_REACTORS
330
47
102
}
330
47
100
AcDbScale
 70
     0
300
1/2" = 1'-0"
140
0.5
141
12.0
290
     0
  0
SCALE
  5
63
102
{ACAD_REACTORS
330
47
102
}
330
47
100
AcDbScale
 70
     0
300
3/4" = 1'-0"
140
0.75
141
12.0
290
     0
  0
SCALE
  5
64
102
{ACAD_REACTORS
330
47
102
}
330
47
100
AcDbScale
 70
     0
300
1" = 1'-0"
140
1.0
141
12.0
290
     0
  0
SCALE
  5
65
102
{ACAD_REACTORS
330
47
102
}
330
47
100
AcDbScale
 70
     0
300
1-1/2" = 1'-0"
140
1.5
141
12.0
290
     0
  0
SCALE
  5
66
102
{ACAD_REACTORS
330
47
102
}
330
47
100
AcDbScale
 70
     0
300
3" = 1'-0"
140
3.0
141
12.0
290
     0
  0
SCALE
  5
67
102
{ACAD_REACTORS
330
47
102
}
330
47
100
AcDbScale
 70
     0
300
6" = 1'-0"
140
6.0
141
12.0
290
     0
  0
SCALE
  5
68
102
{ACAD_REACTORS
330
47
102
}
330
47
100
AcDbScale
 70
     0
300
1'-0" = 1'-0"
140
12.0
141
12.0
290
     0
  0
ENDSEC
  0
EOF
