  0
SECTION
  2
HEADER
  9
$ACADVER
  1
AC1015
  9
$ACADMAINTVER
 70
     6
  9
$DWGCODEPAGE
  3
ANSI_1252
  9
$INSBASE
 10
0.0
 20
0.0
 30
0.0
  9
$EXTMIN
 10
-297.8629891868
 20
-297.8629891867
 30
0.0
  9
$EXTMAX
 10
297.8629891868
 20
297.8629891869
 30
0.0
  9
$LIMMIN
 10
0.0
 20
0.0
  9
$LIMMAX
 10
420.0
 20
297.0
  9
$ORTHOMODE
 70
     0
  9
$REGENMODE
 70
     1
  9
$FILLMODE
 70
     1
  9
$QTEXTMODE
 70
     0
  9
$MIRRTEXT
 70
     1
  9
$LTSCALE
 40
1.0
  9
$ATTMODE
 70
     1
  9
$TEXTSIZE
 40
3.5
  9
$TRACEWID
 40
1.0
  9
$TEXTSTYLE
  7
STANDARD
  9
$CLAYER
  8
0
  9
$CELTYPE
  6
ByLayer
  9
$CECOLOR
 62
   256
  9
$CELTSCALE
 40
1.0
  9
$DISPSILH
 70
     0
  9
$DIMSCALE
 40
1.0
  9
$DIMASZ
 40
3.302
  9
$DIMEXO
 40
1.0
  9
$DIMDLI
 40
3.75
  9
$DIMRND
 40
0.0
  9
$DIMDLE
 40
0.0
  9
$DIMEXE
 40
1.0
  9
$DIMTP
 40
0.0
  9
$DIMTM
 40
0.0
  9
$DIMTXT
 40
3.5
  9
$DIMCEN
 40
2.5
  9
$DIMTSZ
 40
0.0
  9
$DIMTOL
 70
     0
  9
$DIMLIM
 70
     0
  9
$DIMTIH
 70
     1
  9
$DIMTOH
 70
     1
  9
$DIMSE1
 70
     0
  9
$DIMSE2
 70
     0
  9
$DIMTAD
 70
     1
  9
$DIMZIN
 70
     0
  9
$DIMBLK
  1

  9
$DIMASO
 70
     1
  9
$DIMSHO
 70
     1
  9
$DIMPOST
  1

  9
$DIMAPOST
  1

  9
$DIMALT
 70
     0
  9
$DIMALTD
 70
     3
  9
$DIMALTF
 40
0.0393700787
  9
$DIMLFAC
 40
1.0
  9
$DIMTOFL
 70
     1
  9
$DIMTVP
 40
0.0
  9
$DIMTIX
 70
     0
  9
$DIMSOXD
 70
     0
  9
$DIMSAH
 70
     0
  9
$DIMBLK1
  1

  9
$DIMBLK2
  1

  9
$DIMSTYLE
  2
ISO-25
  9
$DIMCLRD
 70
     0
  9
$DIMCLRE
 70
     0
  9
$DIMCLRT
 70
     0
  9
$DIMTFAC
 40
1.0
  9
$DIMGAP
 40
1.524
  9
$DIMJUST
 70
     0
  9
$DIMSD1
 70
     0
  9
$DIMSD2
 70
     0
  9
$DIMTOLJ
 70
     0
  9
$DIMTZIN
 70
     0
  9
$DIMALTZ
 70
     0
  9
$DIMALTTZ
 70
     0
  9
$DIMUPT
 70
     0
  9
$DIMDEC
 70
     2
  9
$DIMTDEC
 70
     1
  9
$DIMALTU
 70
     2
  9
$DIMALTTD
 70
     3
  9
$DIMTXSTY
  7
STANDARD
  9
$DIMAUNIT
 70
     0
  9
$DIMADEC
 70
     1
  9
$DIMALTRND
 40
0.0
  9
$DIMAZIN
 70
     0
  9
$DIMDSEP
 70
    44
  9
$DIMATFIT
 70
     3
  9
$DIMFRAC
 70
     0
  9
$DIMLDRBLK
  1

  9
$DIMLUNIT
 70
     2
  9
$DIMLWD
 70
    -2
  9
$DIMLWE
 70
    -2
  9
$DIMTMOVE
 70
     0
  9
$LUNITS
 70
     2
  9
$LUPREC
 70
     2
  9
$SKETCHINC
 40
1.0
  9
$FILLETRAD
 40
10.0
  9
$AUNITS
 70
     0
  9
$AUPREC
 70
     1
  9
$MENU
  1
.
  9
$ELEVATION
 40
0.0
  9
$PELEVATION
 40
0.0
  9
$THICKNESS
 40
0.0
  9
$LIMCHECK
 70
     0
  9
$CHAMFERA
 40
0.0
  9
$CHAMFERB
 40
0.0
  9
$CHAMFERC
 40
0.0
  9
$CHAMFERD
 40
0.0
  9
$SKPOLY
 70
     0
  9
$TDCREATE
 40
2457078.673207234
  9
$TDUCREATE
 40
2457078.631540567
  9
$TDUPDATE
 40
2457078.673244421
  9
$TDUUPDATE
 40
2457078.631577755
  9
$TDINDWG
 40
0.0000000116
  9
$TDUSRTIMER
 40
0.0000000116
  9
$USRTIMER
 70
     1
  9
$ANGBASE
 50
0.0
  9
$ANGDIR
 70
     0
  9
$PDMODE
 70
     0
  9
$PDSIZE
 40
-1.0
  9
$PLINEWID
 40
0.0
  9
$SPLFRAME
 70
     0
  9
$SPLINETYPE
 70
     6
  9
$SPLINESEGS
 70
     8
  9
$HANDSEED
  5
C7
  9
$SURFTAB1
 70
     6
  9
$SURFTAB2
 70
     6
  9
$SURFTYPE
 70
     6
  9
$SURFU
 70
     6
  9
$SURFV
 70
     6
  9
$UCSBASE
  2

  9
$UCSNAME
  2

  9
$UCSORG
 10
0.0
 20
0.0
 30
0.0
  9
$UCSXDIR
 10
1.0
 20
0.0
 30
0.0
  9
$UCSYDIR
 10
0.0
 20
1.0
 30
0.0
  9
$UCSORTHOREF
  2

  9
$UCSORTHOVIEW
 70
     0
  9
$UCSORGTOP
 10
0.0
 20
0.0
 30
0.0
  9
$UCSORGBOTTOM
 10
0.0
 20
0.0
 30
0.0
  9
$UCSORGLEFT
 10
0.0
 20
0.0
 30
0.0
  9
$UCSORGRIGHT
 10
0.0
 20
0.0
 30
0.0
  9
$UCSORGFRONT
 10
0.0
 20
0.0
 30
0.0
  9
$UCSORGBACK
 10
0.0
 20
0.0
 30
0.0
  9
$PUCSBASE
  2

  9
$PUCSNAME
  2

  9
$PUCSORG
 10
0.0
 20
0.0
 30
0.0
  9
$PUCSXDIR
 10
1.0
 20
0.0
 30
0.0
  9
$PUCSYDIR
 10
0.0
 20
1.0
 30
0.0
  9
$PUCSORTHOREF
  2

  9
$PUCSORTHOVIEW
 70
     0
  9
$PUCSORGTOP
 10
0.0
 20
0.0
 30
0.0
  9
$PUCSORGBOTTOM
 10
0.0
 20
0.0
 30
0.0
  9
$PUCSORGLEFT
 10
0.0
 20
0.0
 30
0.0
  9
$PUCSORGRIGHT
 10
0.0
 20
0.0
 30
0.0
  9
$PUCSORGFRONT
 10
0.0
 20
0.0
 30
0.0
  9
$PUCSORGBACK
 10
0.0
 20
0.0
 30
0.0
  9
$USERI1
 70
     0
  9
$USERI2
 70
     0
  9
$USERI3
 70
     0
  9
$USERI4
 70
     0
  9
$USERI5
 70
     0
  9
$USERR1
 40
0.0
  9
$USERR2
 40
0.0
  9
$USERR3
 40
0.0
  9
$USERR4
 40
0.0
  9
$USERR5
 40
0.0
  9
$WORLDVIEW
 70
     1
  9
$SHADEDGE
 70
     3
  9
$SHADEDIF
 70
    70
  9
$TILEMODE
 70
     1
  9
$MAXACTVP
 70
    64
  9
$PINSBASE
 10
0.0
 20
0.0
 30
0.0
  9
$PLIMCHECK
 70
     0
  9
$PEXTMIN
 10
1.0000000000E+20
 20
1.0000000000E+20
 30
1.0000000000E+20
  9
$PEXTMAX
 10
-1.0000000000E+20
 20
-1.0000000000E+20
 30
-1.0000000000E+20
  9
$PLIMMIN
 10
0.0
 20
0.0
  9
$PLIMMAX
 10
420.0
 20
297.0
  9
$UNITMODE
 70
     0
  9
$VISRETAIN
 70
     1
  9
$PLINEGEN
 70
     0
  9
$PSLTSCALE
 70
     1
  9
$TREEDEPTH
 70
  3020
  9
$CMLSTYLE
  2
Standard
  9
$CMLJUST
 70
     0
  9
$CMLSCALE
 40
20.0
  9
$PROXYGRAPHICS
 70
     1
  9
$MEASUREMENT
 70
     1
  9
$CELWEIGHT
370
    -1
  9
$ENDCAPS
280
     0
  9
$JOINSTYLE
280
     0
  9
$LWDISPLAY
290
     1
  9
$INSUNITS
 70
     4
  9
$HYPERLINKBASE
  1

  9
$STYLESHEET
  1

  9
$XEDIT
290
     1
  9
$CEPSNTYPE
380
     0
  9
$PSTYLEMODE
290
     1
  9
$FINGERPRINTGUID
  2
{0ABD28B7-685C-4CC3-A7E6-9B829F6352A5}
  9
$VERSIONGUID
  2
{FAEB1C32-E019-11D5-929B-00C0DF256EC4}
  9
$EXTNAMES
290
     1
  9
$PSVPSCALE
 40
0.0
  9
$OLESTARTUP
290
     0
  0
ENDSEC
  0
SECTION
  2
CLASSES
  0
CLASS
  1
ACDBDICTIONARYWDFLT
  2
AcDbDictionaryWithDefault
  3
ObjectDBX Classes
 90
        0
280
     0
281
     0
  0
CLASS
  1
VISUALSTYLE
  2
AcDbVisualStyle
  3
ObjectDBX Classes
 90
     4095
280
     0
281
     0
  0
CLASS
  1
MATERIAL
  2
AcDbMaterial
  3
ObjectDBX Classes
 90
     1153
280
     0
281
     0
  0
CLASS
  1
SCALE
  2
AcDbScale
  3
ObjectDBX Classes
 90
     1153
280
     0
281
     0
  0
CLASS
  1
SUN
  2
AcDbSun
  3
SCENEOE
 90
     1153
280
     0
281
     0
  0
CLASS
  1
ACDBPLACEHOLDER
  2
AcDbPlaceHolder
  3
ObjectDBX Classes
 90
        0
280
     0
281
     0
  0
CLASS
  1
LAYOUT
  2
AcDbLayout
  3
ObjectDBX Classes
 90
        0
280
     0
281
     0
  0
ENDSEC
  0
SECTION
  2
TABLES
  0
TABLE
  2
VPORT
  5
8
330
0
100
AcDbSymbolTable
 70
     1
  0
VPORT
  5
29
330
8
100
AcDbSymbolTableRecord
100
AcDbViewportTableRecord
  2
*Active
 70
     0
 10
0.0
 20
0.0
 11
1.0
 21
1.0
 12
0.0
 22
0.0
 13
0.0
 23
0.0
 14
10.0
 24
10.0
 15
10.0
 25
10.0
 16
0.0
 26
0.0
 36
1.0
 17
0.0
 27
0.0000000001
 37
0.0
 40
607.6404979411
 41
1.0
 42
50.0
 43
0.0
 44
0.0
 50
0.0
 51
0.0
 71
     0
 72
   100
 73
     1
 74
     3
 75
     0
 76
     0
 77
     0
 78
     0
281
     0
 65
     1
110
0.0
120
0.0
130
0.0
111
1.0
121
0.0
131
0.0
112
0.0
122
1.0
132
0.0
 79
     0
146
0.0
  0
ENDTAB
  0
TABLE
  2
LTYPE
  5
5
330
0
100
AcDbSymbolTable
 70
     6
  0
LTYPE
  5
14
330
5
100
AcDbSymbolTableRecord
100
AcDbLinetypeTableRecord
  2
ByBlock
 70
     0
  3

 72
    65
 73
     0
 40
0.0
  0
LTYPE
  5
15
330
5
100
AcDbSymbolTableRecord
100
AcDbLinetypeTableRecord
  2
ByLayer
 70
     0
  3

 72
    65
 73
     0
 40
0.0
  0
LTYPE
  5
16
330
5
100
AcDbSymbolTableRecord
100
AcDbLinetypeTableRecord
  2
Continuous
 70
     0
  3
Solid line
 72
    65
 73
     0
 40
0.0
  0
LTYPE
  5
6A
330
5
100
AcDbSymbolTableRecord
100
AcDbLinetypeTableRecord
  2
HIDDEN
 70
     0
  3
Hidden __ __ __ __ __ __ __ __ __ __ __ __ __ __
 72
    65
 73
     2
 40
1.905
 49
1.27
 74
     0
 49
-0.635
 74
     0
  0
LTYPE
  5
6B
330
5
100
AcDbSymbolTableRecord
100
AcDbLinetypeTableRecord
  2
PHANTOM
 70
     0
  3
Phantom ______  __  __  ______  __  __  ______
 72
    65
 73
     6
 40
12.7
 49
6.35
 74
     0
 49
-1.27
 74
     0
 49
1.27
 74
     0
 49
-1.27
 74
     0
 49
1.27
 74
     0
 49
-1.27
 74
     0
  0
LTYPE
  5
6C
330
5
100
AcDbSymbolTableRecord
100
AcDbLinetypeTableRecord
  2
CENTER
 70
     0
  3
Center ____ _ ____ _ ____ _ ____ _ ____ _ ____
 72
    65
 73
     4
 40
10.16
 49
6.35
 74
     0
 49
-1.27
 74
     0
 49
1.27
 74
     0
 49
-1.27
 74
     0
  0
LTYPE
  5
6D
330
5
100
AcDbSymbolTableRecord
100
AcDbLinetypeTableRecord
  2
CENTERX2
 70
     0
  3
Center (2x) ________  __  ________  __  _____
 72
    65
 73
     4
 40
20.32
 49
12.7
 74
     0
 49
-2.54
 74
     0
 49
2.54
 74
     0
 49
-2.54
 74
     0
  0
LTYPE
  5
6E
330
5
100
AcDbSymbolTableRecord
100
AcDbLinetypeTableRecord
  2
DOT2
 70
     0
  3
Dot (.5x) ........................................
 72
    65
 73
     2
 40
0.635
 49
0.0
 74
     0
 49
-0.635
 74
     0
  0
ENDTAB
  0
TABLE
  2
LAYER
  5
2
330
0
100
AcDbSymbolTable
 70
     1
  0
LAYER
  5
10
330
2
100
AcDbSymbolTableRecord
100
AcDbLayerTableRecord
  2
0
 70
     0
 62
     7
  6
Continuous
370
    -3
390
F
  0
ENDTAB
  0
TABLE
  2
STYLE
  5
3
330
0
100
AcDbSymbolTable
 70
     1
  0
STYLE
  5
11
330
3
100
AcDbSymbolTableRecord
100
AcDbTextStyleTableRecord
  2
STANDARD
 70
     0
 40
0.0
 41
1.0
 50
0.0
 71
     0
 42
3.5
  3
GOTHIC.TTF
  4

1001
ACAD
1000
CENTURY GOTHIC
1071
       34
  0
ENDTAB
  0
TABLE
  2
VIEW
  5
6
330
0
100
AcDbSymbolTable
 70
     0
  0
ENDTAB
  0
TABLE
  2
UCS
  5
7
330
0
100
AcDbSymbolTable
 70
     0
  0
ENDTAB
  0
TABLE
  2
APPID
  5
9
330
0
100
AcDbSymbolTable
 70
     1
  0
APPID
  5
12
330
9
100
AcDbSymbolTableRecord
100
AcDbRegAppTableRecord
  2
ACAD
 70
     0
  0
ENDTAB
  0
TABLE
  2
DIMSTYLE
  5
A
330
0
100
AcDbSymbolTable
 70
     1
100
AcDbDimStyleTable
  0
DIMSTYLE
105
27
330
A
100
AcDbSymbolTableRecord
100
AcDbDimStyleTableRecord
  2
ISO-25
 70
     0
 41
2.5
 42
0.625
 43
3.75
 44
1.25
 73
     0
 74
     0
 77
     1
 78
     8
140
2.5
141
2.5
143
0.0393700787
147
0.625
171
     3
172
     1
178
     0
271
     2
272
     2
274
     3
278
    44
283
     0
284
     8
340
11
  0
ENDTAB
  0
TABLE
  2
BLOCK_RECORD
  5
1
330
0
100
AcDbSymbolTable
 70
     1
  0
BLOCK_RECORD
  5
1F
330
1
100
AcDbSymbolTableRecord
100
AcDbBlockTableRecord
  2
*Model_Space
340
22
  0
BLOCK_RECORD
  5
1B
330
1
100
AcDbSymbolTableRecord
100
AcDbBlockTableRecord
  2
*Paper_Space
340
1E
  0
BLOCK_RECORD
  5
23
330
1
100
AcDbSymbolTableRecord
100
AcDbBlockTableRecord
  2
*Paper_Space0
340
26
  0
ENDTAB
  0
ENDSEC
  0
SECTION
  2
BLOCKS
  0
BLOCK
  5
20
330
1F
100
AcDbEntity
  8
0
100
AcDbBlockBegin
  2
*Model_Space
 70
     0
 10
0.0
 20
0.0
 30
0.0
  3
*Model_Space
  1
*Model_Space
  0
ENDBLK
  5
21
330
1F
100
AcDbEntity
  8
0
100
AcDbBlockEnd
  0
BLOCK
  5
1C
330
1B
100
AcDbEntity
 67
     1
  8
0
100
AcDbBlockBegin
  2
*Paper_Space
 70
     0
 10
0.0
 20
0.0
 30
0.0
  3
*Paper_Space
  1
*Paper_Space
  0
ENDBLK
  5
1D
330
1B
100
AcDbEntity
 67
     1
  8
0
100
AcDbBlockEnd
  0
BLOCK
  5
24
330
23
100
AcDbEntity
  8
0
100
AcDbBlockBegin
  2
*Paper_Space0
 70
     0
 10
0.0
 20
0.0
 30
0.0
  3
*Paper_Space0
  1
*Paper_Space0
  0
ENDBLK
  5
25
330
23
100
AcDbEntity
  8
0
100
AcDbBlockEnd
  0
ENDSEC
  0
SECTION
  2
ENTITIES
  0
LWPOLYLINE
  5
74
330
1F
100
AcDbEntity
  8
0
  6
Continuous
 62
     7
370
    15
100
AcDbPolyline
 90
       44
 70
   128
 43
0.0
 10
-36.846321355
 20
20.4812957677
 10
-37.2739022289
 20
-7.5226245155
 10
-37.531904263
 20
-19.8422810359
 10
-37.6927229554
 20
-25.2615296483
 10
-37.7755168381
 20
-27.64564278
 10
-37.7927289854
 20
-28.1139226194
 10
-37.8102639625
 20
-28.5821929015
 10
-37.8281265066
 20
-29.0504534859
 10
-37.846321355
 20
-29.5187042323
 10
-38.1272573718
 20
-30.7080937688
 10
-38.7992850494
 20
-32.1884869666
 10
-40.3063050818
 20
-34.6329579602
 10
-41.0343805877
 20
-35.6009607995
 10
-41.7277788965
 20
-36.3975542664
 10
-42.7337025035
 20
-37.4334129078
 10
-43.7936605243
 20
-38.5800862898
 10
-47.4330933505
 20
-42.4589646331
 10
-48.9077598026
 20
-43.7854676459
 10
-49.5734060659
 20
-44.3147503663
 10
-51.4918372359
 20
-45.6068191028
 10
-54.5623480295
 20
-47.1562146165
 10
-57.9795833086
 20
-48.3746536353
 10
-61.6705554724
 20
-49.2612189593
 10
-65.5622769195
 20
-49.8149933885
 10
-69.5817600489
 20
-50.0350597231
 10
-75.0136598735
 20
-49.8077947381
 10
-80.3699281952
 20
-48.9834662367
 10
-85.4775573669
 20
-47.5599001156
 10
-90.1635397416
 20
-45.5349222709
 10
-94.2548676722
 20
-42.9063585993
 10
-97.1765378907
 20
-40.1500900564
 10
-98.4794965572
 20
-38.5241458867
 10
-100.7624525026
 20
-34.8968079605
 10
-102.6257872618
 20
-30.853485546
 10
-103.9781735496
 20
-26.6153316935
 10
-104.3025635883
 20
-25.18311797
 10
-104.5551743281
 20
-23.7623330223
 10
-104.7325186711
 20
-22.3614210118
 10
-104.8311095193
 20
-20.9888260998
 10
-104.8805580547
 20
-18.7990763264
 10
-104.9215496932
 20
-16.1595218351
 10
-104.9498702594
 20
-13.5198296309
 10
-104.9332284712
 20
2.9803512367
 10
-104.846321355
 20
19.4812957677
  0
LWPOLYLINE
  5
75
330
1F
100
AcDbEntity
  8
0
  6
Continuous
 62
     7
370
    15
100
AcDbPolyline
 90
       50
 70
   128
 43
0.0
 10
-30.846321355
 20
26.4812957677
 10
-30.6234297242
 20
19.4365454912
 10
-30.1089071923
 20
11.7214247952
 10
-29.5339822998
 20
3.5346546432
 10
-29.1298835876
 20
-4.9250440012
 10
-29.1278395963
 20
-13.4589501745
 10
-29.7590788667
 20
-21.8683429132
 10
-30.7871988789
 20
-27.974132446
 10
-32.3991563205
 20
-33.8142672234
 10
-34.2719370027
 20
-38.411739547
 10
-35.8511729429
 20
-41.0280033084
 10
-37.8358297173
 20
-43.5255886816
 10
-40.1639839039
 20
-45.8731048053
 10
-42.7737120809
 20
-48.0391608184
 10
-45.6030908264
 20
-49.9923658595
 10
-50.1029777873
 20
-52.444839611
 10
-54.7483859338
 20
-54.2481053826
 10
-59.3330979045
 20
-55.2976253375
 10
-61.4144885044
 20
-55.5011029678
 10
-64.9863656333
 20
-55.6089758836
 10
-68.7641880169
 20
-55.6881483605
 10
-72.3267971652
 20
-55.7019765658
 10
-75.6925273303
 20
-55.6227611331
 10
-82.263588019
 20
-55.0207536207
 10
-88.206270309
 20
-53.6110819582
 10
-93.6955651148
 20
-51.1293700789
 10
-97.1551299098
 20
-48.7757649219
 10
-100.543734347
 20
-45.7640097699
 10
-101.2998156564
 20
-44.9896974051
 10
-102.0554253999
 20
-44.177526813
 10
-102.8111327411
 20
-43.3266381017
 10
-103.5675068436
 20
-42.4361713798
 10
-104.325116871
 20
-41.5052667554
 10
-105.084531987
 20
-40.5330643368
 10
-105.846321355
 20
-39.5187042323
 10
-107.3969935912
 20
-37.1985670787
 10
-108.6851248654
 20
-34.7033340032
 10
-109.4917058647
 20
-32.3924750937
 10
-109.723992294
 20
-31.3485287943
 10
-109.7993142567
 20
-30.884786288
 10
-109.8269830977
 20
-30.6799592761
 10
-109.8380750141
 20
-30.5896905174
 10
-109.8427439647
 20
-30.5499447438
 10
-109.8447571922
 20
-30.5324513205
 10
-109.8456350392
 20
-30.5247531953
 10
-109.8460197471
 20
-30.5213658233
 10
-109.846321355
 20
-30.5187042323
 10
-111.3835114716
 20
-11.8897105021
 10
-111.7428373345
 20
6.8162971347
 10
-110.846321355
 20
25.4812957677
  0
LWPOLYLINE
  5
76
330
1F
100
AcDbEntity
  8
0
  6
Continuous
 62
     7
370
    15
100
AcDbPolyline
 90
       35
 70
   128
 43
0.0
 10
-145.846321355
 20
23.4812957677
 10
-144.1934346439
 20
22.6964110162
 10
-141.8673828975
 20
21.6030631816
 10
-139.1373038779
 20
20.2533244842
 10
-136.2723353472
 20
18.6992671443
 10
-133.2357309304
 20
16.780448777
 10
-130.7456466975
 20
14.7438102182
 10
-130.3002988037
 20
14.2778678608
 10
-129.9058265093
 20
13.8105023645
 10
-129.5665075951
 20
13.3425413856
 10
-129.2866198419
 20
12.8748125803
 10
-129.0704410303
 20
12.4081436047
 10
-128.9222489411
 20
11.9433621151
 10
-128.846321355
 20
11.4812957677
 10
-127.7998117267
 20
-1.1029378094
 10
-126.9659928691
 20
-13.7075568206
 10
-126.6593850825
 20
-24.804170168
 10
-126.7098141022
 20
-29.6851540231
 10
-126.7750839126
 20
-31.8321385529
 10
-126.7912109594
 20
-32.2538106785
 10
-126.8084516446
 20
-32.675462721
 10
-126.8268178245
 20
-33.0970940993
 10
-126.846321355
 20
-33.5187042323
 10
-126.8612109167
 20
-33.65968414
 10
-126.8905272977
 20
-33.7714177334
 10
-126.933538206
 20
-33.8553152574
 10
-126.9895113497
 20
-33.912786957
 10
-127.0577144368
 20
-33.945243077
 10
-127.1374151752
 20
-33.9540938624
 10
-127.3283804379
 20
-33.9066204091
 10
-127.7838914372
 20
-33.616183538
 10
-128.3320907925
 20
-33.1265263786
 10
-129.2869475659
 20
-32.1353287975
 10
-130.1280747071
 20
-31.229091052
 10
-130.846321355
 20
-30.5187042323
  0
LWPOLYLINE
  5
7D
330
1F
100
AcDbEntity
  8
0
  6
Continuous
 62
     7
370
    15
100
AcDbPolyline
 90
       14
 70
   128
 43
0.0
 10
-130.846321355
 20
-30.5187042323
 10
-133.1883677871
 20
-28.3743197691
 10
-135.2574154703
 20
-25.958159613
 10
-135.7077445627
 20
-25.2611991249
 10
-136.1070760097
 20
-24.5322256196
 10
-136.4487119445
 20
-23.7684640239
 10
-136.7259545002
 20
-22.9671392648
 10
-137.2279694835
 20
-20.8785133712
 10
-137.9868845269
 20
-17.2401570736
 10
-139.3852746963
 20
-9.1539857423
 10
-140.6522941804
 20
-0.8379137333
 10
-142.0060622626
 20
7.5072178942
 10
-143.6646982263
 20
15.6805680809
 10
-145.846321355
 20
23.4812957677
  0
LWPOLYLINE
  5
7F
330
1F
100
AcDbEntity
  8
0
  6
Continuous
 62
     7
370
    15
100
AcDbPolyline
 90
       83
 70
   128
 43
0.0
 10
-155.5789764369
 20
50.1856701002
 10
-154.7966964097
 20
64.2667906562
 10
-154.0413689882
 20
78.3664225113
 10
-153.8136913135
 20
81.122644297
 10
-153.54279769
 20
83.8712504002
 10
-153.221422225
 20
86.6108732211
 10
-152.8422990256
 20
89.3401451598
 10
-152.3981621988
 20
92.0576986165
 10
-151.8817458519
 20
94.7621659916
 10
-151.2857840918
 20
97.4521796852
 10
-150.7084700356
 20
99.7488416194
 10
-148.1680599389
 20
111.0361866253
 10
-145.5239566822
 20
122.2890172029
 10
-144.1837266135
 20
126.7078018925
 10
-142.1339643617
 20
132.7393490597
 10
-139.9746881807
 20
139.0138768361
 10
-137.7069817795
 20
145.2512014828
 10
-135.249963663
 20
151.4022670624
 10
-133.499870379
 20
155.3595035466
 10
-131.6112378689
 20
159.2449584598
 10
-129.5613622896
 20
163.0448615533
 10
-127.4847914767
 20
166.4986359505
 10
-125.507977195
 20
169.4711544475
 10
-123.4042176451
 20
172.3651354539
 10
-117.811250885
 20
179.0480525852
 10
-111.6254693052
 20
185.1965667037
 10
-104.9317562618
 20
190.7805018
 10
-97.3401374327
 20
196.0713633342
 10
-90.2895034306
 20
200.1961210754
 10
-82.9610738625
 20
203.8145355411
 10
-80.6109336802
 20
204.8457970514
 10
-78.2418720326
 20
205.8259205532
 10
-75.8559258169
 20
206.7546373371
 10
-73.4551319301
 20
207.6316786941
 10
-69.2063318599
 20
209.0674427443
 10
-56.8794123663
 20
212.5348319821
 10
-44.2983203204
 20
215.1139541977
 10
-31.557263734
 20
216.8487531072
 10
-18.7504506188
 20
217.7831724266
 10
-8.9459416655
 20
217.9933302352
 10
-0.2469048422
 20
218.1313071547
 10
8.4787375348
 20
218.2751147934
 10
17.1992568752
 20
218.2606723407
 10
22.4570359876
 20
218.1060256551
 10
27.6943211226
 20
217.7972120871
 10
32.9040952526
 20
217.2979438736
 10
38.0793413499
 20
216.5719332512
 10
43.213042387
 20
215.5828924566
 10
47.1608229156
 20
214.7074968622
 10
55.6956142377
 20
213.3099244467
 10
64.27685535
 20
212.0297131915
 10
70.2843418598
 20
210.8071006297
 10
76.0780376508
 20
209.0443192805
 10
81.5589887265
 20
206.4913495896
 10
86.2961310899
 20
203.905555422
 10
91.1118877281
 20
201.4335859322
 10
98.2602519291
 20
197.7273808833
 10
105.1611174532
 20
193.6647848593
 10
111.499769283
 20
188.9409076186
 10
116.9490952434
 20
183.8425439591
 10
121.9518829686
 20
178.2698328041
 10
126.5047064799
 20
172.3138592278
 10
130.8819527245
 20
165.6065918171
 10
135.2880593869
 20
157.5963589086
 10
139.1161226773
 20
149.2719940736
 10
142.4111694142
 20
140.714911327
 10
143.9395406404
 20
136.1670881442
 10
145.595815832
 20
130.7382391044
 10
147.824608104
 20
122.9820884416
 10
149.9306364182
 20
115.1863778531
 10
151.8975944926
 20
107.3528142142
 10
153.7091760455
 20
99.4831044
 10
156.6394234111
 20
84.5834529767
 10
156.9724225734
 20
82.6238772963
 10
157.2928916388
 20
80.6624312275
 10
157.6005866708
 20
78.6991403045
 10
157.8952637328
 20
76.7340300618
 10
158.176678888
 20
74.7671260336
 10
158.3550176193
 20
73.4444963379
 10
158.5968222181
 20
69.0557188277
 10
158.376614573
 20
64.652771077
 10
157.3754569085
 20
56.7717187473
 10
156.4327663016
 20
48.8924596433
  0
LWPOLYLINE
  5
83
330
1F
100
AcDbEntity
  8
0
  6
Continuous
 62
     7
370
    15
100
AcDbPolyline
 90
       48
 70
   128
 43
0.0
 10
154.153678645
 20
34.4812957677
 10
151.4532107335
 20
10.3888744352
 10
150.2124901297
 20
-0.2052372573
 10
149.6310219416
 20
-4.8622097191
 10
149.3661309076
 20
-6.9101488071
 10
149.3133853823
 20
-7.3123335314
 10
149.2603972037
 20
-7.7144879733
 10
149.2071628112
 20
-8.1166116883
 10
149.1536786441
 20
-8.5187042321
 10
148.6132534484
 20
-9.6404694203
 10
148.3167464613
 20
-10.1182460926
 10
148.2141926367
 20
-10.338560856
 10
148.1778179926
 20
-10.4385736943
 10
148.1637919724
 20
-10.4832699702
 10
148.1580279019
 20
-10.5030781665
 10
148.1555726475
 20
-10.5118219246
 10
148.154508181
 20
-10.5156746874
 10
148.1540428985
 20
-10.5173709746
 10
148.1538387723
 20
-10.5181175488
 10
148.153678644
 20
-10.5187042321
 10
146.8759576061
 20
-15.530551713
 10
145.6889100747
 20
-20.5663209545
 10
144.4791610495
 20
-25.5956961906
 10
143.1258176623
 20
-30.613966948
 10
140.8162977883
 20
-37.395177699
 10
139.0722918174
 20
-41.8288785822
 10
137.2698447193
 20
-46.2604041753
 10
135.5152826788
 20
-50.6921969201
 10
133.9149318808
 20
-55.1266992585
 10
132.8104480312
 20
-58.7195382928
 10
132.1533055976
 20
-61.3490618269
 10
131.2855666919
 20
-65.3264362351
 10
130.3872883381
 20
-69.2935655071
 10
129.2648477521
 20
-73.1942535707
 10
128.3712354503
 20
-75.1536754636
 10
126.3838154602
 20
-78.0776437897
 10
125.6063690067
 20
-79.4056596387
 10
125.3312311999
 20
-80.0194248828
 10
125.2272319948
 20
-80.297004605
 10
125.1851248716
 20
-80.4207514941
 10
125.1673346329
 20
-80.4755254057
 10
125.1596521264
 20
-80.4996900285
 10
125.1563001499
 20
-80.5103349686
 10
125.1536786426
 20
-80.5187042314
 10
122.8074767583
 20
-89.5050438012
 10
120.9148694643
 20
-98.6574513029
 10
118.916131341
 20
-107.7579233894
 10
116.2515369689
 20
-116.5884567134
  0
LWPOLYLINE
  5
85
330
1F
100
AcDbEntity
  8
0
  6
Continuous
 62
     7
370
    15
100
AcDbPolyline
 90
       25
 70
   128
 43
0.0
 10
-116.2124335863
 20
-116.5884567134
 10
-119.5057070119
 20
-103.7367997414
 10
-122.4413093263
 20
-90.763602115
 10
-123.246195792
 20
-87.3761953841
 10
-124.0926476067
 20
-84.0015855956
 10
-124.9943835301
 20
-80.6441590336
 10
-125.965122322
 20
-77.3083019824
 10
-126.9109541726
 20
-74.3244194648
 10
-127.3516962231
 20
-73.1060374032
 10
-129.2795103944
 20
-68.9027142282
 10
-131.5325701173
 20
-64.8338182155
 10
-133.8115779695
 20
-60.7718659211
 10
-135.7115057058
 20
-56.8426308702
 10
-136.0942621465
 20
-55.9121317177
 10
-136.9556285281
 20
-53.7692691585
 10
-137.7954630196
 20
-51.6236013418
 10
-138.6137742372
 20
-49.4750675469
 10
-139.4105707972
 20
-47.3236070531
 10
-140.185861316
 20
-45.1691591396
 10
-140.9396544098
 20
-43.0116630859
 10
-145.1643470467
 20
-29.4544701376
 10
-148.5517366806
 20
-15.7610129176
 10
-151.4955387011
 20
0.7389467839
 10
-153.2592172142
 20
17.4780458608
 10
-153.846321355
 20
34.4812957677
  0
LWPOLYLINE
  5
93
330
1F
100
AcDbEntity
  8
0
  6
Continuous
 62
     7
370
    15
100
AcDbPolyline
 90
       13
 70
   128
 43
0.0
 10
145.4553422701
 20
23.4812957677
 10
145.3319047433
 20
17.626488072
 10
144.5251776188
 20
11.8654933559
 10
143.3452885129
 20
6.1550897796
 10
142.0929621234
 20
0.4535859892
 10
140.8929912851
 20
-5.2520734487
 10
139.7234674586
 20
-10.9541371541
 10
138.8709165292
 20
-15.4569892424
 10
138.1104937721
 20
-20.0035143315
 10
137.0128883921
 20
-24.4465312271
 10
134.9378869074
 20
-28.5252457958
 10
131.8642501816
 20
-31.9637397434
 10
128.0273872497
 20
-34.4807056636
  0
CIRCLE
  5
98
330
1F
100
AcDbEntity
  8
0
  6
Continuous
 62
     7
370
    15
100
AcDbCircle
 10
0.0
 20
0.0000000001
 30
0.0
 40
297.8629891868113
  0
LWPOLYLINE
  5
9A
330
1F
100
AcDbEntity
  8
0
  6
Continuous
 62
     7
370
    15
100
AcDbPolyline
 90
       47
 70
   128
 43
0.0
 10
-174.1734006686
 20
69.6623907305
 10
-180.0601037363
 20
67.0566717866
 10
-186.025592055
 20
64.5873579128
 10
-191.9280521728
 20
62.008919983
 10
-197.625670638
 20
59.075828871
 10
-202.5997357934
 20
55.8328653005
 10
-206.5112389737
 20
52.671211287
 10
-210.1437211914
 20
49.1636419735
 10
-214.4263171381
 20
44.1098832254
 10
-218.1070735329
 20
38.6321519709
 10
-221.554972461
 20
32.7493535566
 10
-223.6126686098
 20
28.3962757324
 10
-225.0311218618
 20
23.9158495892
 10
-225.5213173755
 20
19.8955693195
 10
-225.4586573911
 20
18.1101588488
 10
-225.3979937145
 20
17.4873307721
 10
-225.2709344402
 20
16.2242364228
 10
-225.1411664358
 20
14.9612160894
 10
-225.0086803163
 20
13.698283641
 10
-224.8734666969
 20
12.4354529469
 10
-222.4447498845
 20
-6.9549842884
 10
-219.335141523
 20
-26.2677098243
 10
-215.5105459978
 20
-45.4523367453
 10
-209.9426359593
 20
-68.1844918613
 10
-207.1374378126
 20
-78.0832834393
 10
-206.7535923242
 20
-79.3742575053
 10
-206.3658902548
 20
-80.6639519186
 10
-205.9743204076
 20
-81.9523501326
 10
-205.5788715858
 20
-83.2394356004
 10
-205.1795325925
 20
-84.5251917752
 10
-204.9245270829
 20
-85.3368483795
 10
-203.3034104373
 20
-89.0500201207
 10
-201.0406761917
 20
-92.4479322099
 10
-197.702899836
 20
-96.1192233084
 10
-193.8868413164
 20
-99.4270249224
 10
-189.8267614108
 20
-102.4166126357
 10
-188.0877717752
 20
-103.5998394979
 10
-185.3336301928
 20
-105.3664255495
 10
-180.9706034464
 20
-107.7023151228
 10
-176.4215996281
 20
-109.6314064321
 10
-171.7173229056
 20
-111.1988247587
 10
-166.8884774463
 20
-112.4496953841
 10
-161.9657674178
 20
-113.4291435899
 10
-156.9798969876
 20
-114.1822946576
 10
-146.4644158824
 20
-115.226272194
 10
-136.0888724894
 20
-115.8899699523
 10
-126.1356881248
 20
-116.5884567134
  0
LWPOLYLINE
  5
9E
330
1F
100
AcDbEntity
  8
0
  6
Continuous
 62
     7
370
    15
100
AcDbPolyline
 90
       67
 70
   128
 43
0.0
 10
-165.0983756178
 20
116.4812957677
 10
-164.5688418681
 20
119.0810278374
 10
-163.9168001703
 20
122.7164624722
 10
-163.1236978413
 20
127.1572579121
 10
-162.1709821982
 20
132.1730723968
 10
-161.0401005581
 20
137.5335641661
 10
-159.7380399309
 20
142.9109586387
 10
-158.22864713
 20
148.1804206194
 10
-156.4943457238
 20
153.1237290444
 10
-154.5175592805
 20
157.5226628499
 10
-152.1242683898
 20
161.5914559628
 10
-149.9337146213
 20
165.294617628
 10
-147.7707516469
 20
169.0214772962
 10
-145.5962828977
 20
172.7418099477
 10
-143.3712118047
 20
176.4253905627
 10
-141.0564417989
 20
180.0419941215
 10
-135.2549243707
 20
187.8523644808
 10
-128.4900607739
 20
195.1826358594
 10
-121.1432205193
 20
202.0121024527
 10
-113.2506193194
 20
208.1761178813
 10
-104.5410876924
 20
213.6929147386
 10
-94.731416005
 20
218.6185216143
 10
-85.1422477721
 20
222.5360205107
 10
-75.3532442785
 20
225.9326702146
 10
-65.8457406215
 20
228.8495660168
 10
-56.4093829906
 20
231.299460023
 10
-48.0038323698
 20
232.9700765551
 10
-39.5247404034
 20
234.0451771452
 10
-37.2944392994
 20
234.2115146171
 10
-33.9785427054
 20
234.3832846677
 10
-28.5947539773
 20
234.6822239727
 10
-23.1913003171
 20
235.0169792421
 10
-17.7728385575
 20
235.3669347811
 10
-12.3440255313
 20
235.7114748952
 10
1.4896416838
 20
236.423100773
 10
15.2834005651
 20
236.6260503898
 10
28.9604466114
 20
235.9803119288
 10
33.5262507274
 20
235.5122561962
 10
38.0671792808
 20
234.8964310022
 10
42.5802996889
 20
234.1198538687
 10
47.0626793691
 20
233.1695423173
 10
51.5113857386
 20
232.0325138699
 10
53.9155584922
 20
231.3608095918
 10
55.9667195287
 20
230.8207016096
 10
64.5871450135
 20
228.785088595
 10
73.2291402095
 20
226.8181705725
 10
81.7619131836
 20
224.5478723337
 10
88.5029116686
 20
222.231328026
 10
94.6136749049
 20
219.520850176
 10
100.2443156267
 20
216.5351658371
 10
105.698371479
 20
213.2097785965
 10
114.8571734242
 20
206.6657449198
 10
118.7047875807
 20
203.557825017
 10
119.2002473338
 20
203.1422070352
 10
119.6937505049
 20
202.7247380314
 10
120.1852931723
 20
202.3054638164
 10
120.6748714142
 20
201.8844302011
 10
121.162481309
 20
201.4616829963
 10
122.1540277399
 20
200.5894290119
 10
130.1373644426
 20
192.7116760634
 10
137.0474427668
 20
184.3507265893
 10
143.0122468215
 20
175.5481991862
 10
148.1597607153
 20
166.3457124506
 10
152.6179685571
 20
156.784884979
 10
157.6272414562
 20
143.792303591
 10
161.9613362321
 20
130.3500508149
 10
165.9076591597
 20
116.5515870492
  0
LWPOLYLINE
  5
A0
330
1F
100
AcDbEntity
  8
0
  6
Continuous
 62
     7
370
    15
100
AcDbPolyline
 90
       47
 70
   128
 43
0.0
 10
174.1734006686
 20
69.6623907305
 10
180.0601037363
 20
67.0566717866
 10
186.025592055
 20
64.5873579128
 10
191.9280521728
 20
62.008919983
 10
197.625670638
 20
59.075828871
 10
202.5997357934
 20
55.8328653005
 10
206.5112389737
 20
52.671211287
 10
210.1437211914
 20
49.1636419735
 10
214.4263171381
 20
44.1098832254
 10
218.1070735329
 20
38.6321519709
 10
221.554972461
 20
32.7493535566
 10
223.6126686098
 20
28.3962757324
 10
225.0311218618
 20
23.9158495892
 10
225.5213173755
 20
19.8955693195
 10
225.4586573911
 20
18.1101588488
 10
225.3979937145
 20
17.4873307721
 10
225.2709344402
 20
16.2242364228
 10
225.1411664358
 20
14.9612160894
 10
225.0086803163
 20
13.698283641
 10
224.8734666969
 20
12.4354529469
 10
222.4447498845
 20
-6.9549842884
 10
219.335141523
 20
-26.2677098243
 10
215.5105459978
 20
-45.4523367453
 10
209.9426359593
 20
-68.1844918613
 10
207.1374378126
 20
-78.0832834393
 10
206.7535923242
 20
-79.3742575053
 10
206.3658902548
 20
-80.6639519186
 10
205.9743204076
 20
-81.9523501326
 10
205.5788715858
 20
-83.2394356004
 10
205.1795325925
 20
-84.5251917752
 10
204.9245270829
 20
-85.3368483795
 10
203.3034104373
 20
-89.0500201207
 10
201.0406761917
 20
-92.4479322099
 10
197.702899836
 20
-96.1192233084
 10
193.8868413164
 20
-99.4270249224
 10
189.8267614108
 20
-102.4166126357
 10
188.0877717752
 20
-103.5998394979
 10
185.3336301928
 20
-105.3664255495
 10
180.9706034464
 20
-107.7023151228
 10
176.4215996281
 20
-109.6314064321
 10
171.7173229056
 20
-111.1988247587
 10
166.8884774463
 20
-112.4496953841
 10
161.9657674178
 20
-113.4291435899
 10
156.9798969876
 20
-114.1822946576
 10
146.4644158824
 20
-115.226272194
 10
136.0888724894
 20
-115.8899699523
 10
126.1356881248
 20
-116.5884567134
  0
LINE
  5
A1
330
1F
100
AcDbEntity
  8
0
  6
Continuous
 62
     7
370
    15
100
AcDbLine
 10
36.2915273294
 20
20.4812957677
 30
0.0
 11
103.6195991155
 21
20.4812957677
 31
0.0
  0
LINE
  5
A2
330
1F
100
AcDbEntity
  8
0
  6
Continuous
 62
     7
370
    15
100
AcDbLine
 10
103.6195991155
 20
20.4812957677
 30
0.0
 11
103.6195991155
 21
-27.9402644044
 31
0.0
  0
LINE
  5
A3
330
1F
100
AcDbEntity
  8
0
  6
Continuous
 62
     7
370
    15
100
AcDbLine
 10
36.2915273294
 20
-27.9402644044
 30
0.0
 11
36.2915273294
 21
20.4812957677
 31
0.0
  0
LINE
  5
A4
330
1F
100
AcDbEntity
  8
0
  6
Continuous
 62
     7
370
    15
100
AcDbLine
 10
-104.846321355
 20
19.4812957677
 30
0.0
 11
-36.846321355
 21
20.4812957677
 31
0.0
  0
LINE
  5
A5
330
1F
100
AcDbEntity
  8
0
  6
Continuous
 62
     7
370
    15
100
AcDbLine
 10
-153.846321355
 20
34.4812957677
 30
0.0
 11
-127.846321355
 21
20.4812957677
 31
0.0
  0
LINE
  5
A6
330
1F
100
AcDbEntity
  8
0
  6
Continuous
 62
     7
370
    15
100
AcDbLine
 10
-13.1296025386
 20
3.5669555126
 30
0.0
 11
13.1296025386
 21
3.5669555126
 31
0.0
  0
LINE
  5
A7
330
1F
100
AcDbEntity
  8
0
  6
Continuous
 62
     7
370
    15
100
AcDbLine
 10
147.1327484342
 20
52.4897129379
 30
0.0
 11
126.153678645
 21
41.4812957677
 31
0.0
  0
LINE
  5
A8
330
1F
100
AcDbEntity
  8
0
  6
Continuous
 62
     7
370
    15
100
AcDbLine
 10
-148.846321355
 20
53.4812957677
 30
0.0
 11
-83.846321355
 21
45.4812957677
 31
0.0
  0
LINE
  5
A9
330
1F
100
AcDbEntity
  8
0
  6
Continuous
 62
     7
370
    15
100
AcDbLine
 10
31.2900134252
 20
26.4812957677
 30
0.0
 11
110.9295040523
 21
26.4812957677
 31
0.0
  0
LINE
  5
AA
330
1F
100
AcDbEntity
  8
0
  6
Continuous
 62
     7
370
    15
100
AcDbLine
 10
128.0273872497
 20
-34.4807056636
 30
0.0
 11
128.0273872497
 21
12.097650432
 31
0.0
  0
LINE
  5
AB
330
1F
100
AcDbEntity
  8
0
  6
Continuous
 62
     7
370
    15
100
AcDbLine
 10
-127.846321355
 20
33.4913135656
 30
0.0
 11
-155.5789764369
 21
50.1856701002
 31
0.0
  0
LINE
  5
AC
330
1F
100
AcDbEntity
  8
0
  6
Continuous
 62
     7
370
    15
100
AcDbLine
 10
156.4327663016
 20
48.8924596433
 30
0.0
 11
128.153678645
 21
34.4812957677
 31
0.0
  0
LINE
  5
AD
330
1F
100
AcDbEntity
  8
0
  6
Continuous
 62
     7
370
    15
100
AcDbLine
 10
128.153678645
 20
34.4812957677
 30
0.0
 11
128.0273872497
 21
21.41815007
 31
0.0
  0
LINE
  5
AE
330
1F
100
AcDbEntity
  8
0
  6
Continuous
 62
     7
370
    15
100
AcDbLine
 10
128.0273872497
 20
21.41815007
 30
0.0
 11
154.153678645
 21
34.4812957677
 31
0.0
  0
LINE
  5
AF
330
1F
100
AcDbEntity
  8
0
  6
Continuous
 62
     7
370
    15
100
AcDbLine
 10
13.1296025386
 20
3.5669555126
 30
0.0
 11
13.1296025386
 21
10.5245226699
 31
0.0
  0
LINE
  5
B0
330
1F
100
AcDbEntity
  8
0
  6
Continuous
 62
     7
370
    15
100
AcDbLine
 10
-13.1296025386
 20
10.5245226699
 30
0.0
 11
-13.1296025386
 21
3.5669555126
 31
0.0
  0
LINE
  5
B1
330
1F
100
AcDbEntity
  8
0
  6
Continuous
 62
     7
370
    15
100
AcDbLine
 10
83.153678645
 20
45.4812957677
 30
0.0
 11
147.1327484342
 21
52.4897129379
 31
0.0
  0
LINE
  5
B2
330
1F
100
AcDbEntity
  8
0
  6
Continuous
 62
     7
370
    15
100
AcDbLine
 10
126.153678645
 20
41.4812957677
 30
0.0
 11
83.153678645
 21
45.4812957677
 31
0.0
  0
LINE
  5
B3
330
1F
100
AcDbEntity
  8
0
  6
Continuous
 62
     7
370
    15
100
AcDbLine
 10
-127.846321355
 20
41.4812957677
 30
0.0
 11
-148.846321355
 21
53.4812957677
 31
0.0
  0
LINE
  5
B4
330
1F
100
AcDbEntity
  8
0
  6
Continuous
 62
     7
370
    15
100
AcDbLine
 10
-83.846321355
 20
45.4812957677
 30
0.0
 11
-127.846321355
 21
41.4812957677
 31
0.0
  0
LINE
  5
B5
330
1F
100
AcDbEntity
  8
0
  6
Continuous
 62
     7
370
    15
100
AcDbLine
 10
13.1296025386
 20
20.4812957677
 30
0.0
 11
13.1296025386
 21
26.4812957677
 31
0.0
  0
LINE
  5
B6
330
1F
100
AcDbEntity
  8
0
  6
Continuous
 62
     7
370
    15
100
AcDbLine
 10
-13.1296025386
 20
26.4812957677
 30
0.0
 11
-13.1296025386
 21
20.4812957677
 31
0.0
  0
LINE
  5
B7
330
1F
100
AcDbEntity
  8
0
  6
Continuous
 62
     7
370
    15
100
AcDbLine
 10
31.2900134252
 20
-27.9402644044
 30
0.0
 11
31.2900134252
 21
26.4812957677
 31
0.0
  0
LINE
  5
B8
330
1F
100
AcDbEntity
  8
0
  6
Continuous
 62
     7
370
    15
100
AcDbLine
 10
110.9295040523
 20
26.4812957677
 30
0.0
 11
110.9295040523
 21
-27.9402644044
 31
0.0
  0
LINE
  5
B9
330
1F
100
AcDbEntity
  8
0
  6
Continuous
 62
     7
370
    15
100
AcDbLine
 10
128.0273872497
 20
12.097650432
 30
0.0
 11
145.4553422701
 21
23.4812957677
 31
0.0
  0
LINE
  5
BA
330
1F
100
AcDbEntity
  8
0
  6
Continuous
 62
     7
370
    15
100
AcDbLine
 10
-110.846321355
 20
25.4812957677
 30
0.0
 11
-30.846321355
 21
26.4812957677
 31
0.0
  0
LINE
  5
BB
330
1F
100
AcDbEntity
  8
0
  6
Continuous
 62
     7
370
    15
100
AcDbLine
 10
-13.1296025386
 20
20.4812957677
 30
0.0
 11
13.1296025386
 21
20.4812957677
 31
0.0
  0
LINE
  5
BC
330
1F
100
AcDbEntity
  8
0
  6
Continuous
 62
     7
370
    15
100
AcDbLine
 10
-127.846321355
 20
20.4812957677
 30
0.0
 11
-127.846321355
 21
33.4913135656
 31
0.0
  0
LINE
  5
BD
330
1F
100
AcDbEntity
  8
0
  6
Continuous
 62
     7
370
    15
100
AcDbLine
 10
-174.1734006686
 20
69.6623907305
 30
0.0
 11
-174.846321355
 21
116.4812957677
 31
0.0
  0
LINE
  5
BE
330
1F
100
AcDbEntity
  8
0
  6
Continuous
 62
     7
370
    15
100
AcDbLine
 10
165.9076591597
 20
116.5515870492
 30
0.0
 11
174.1734006686
 21
116.5515870492
 31
0.0
  0
LINE
  5
BF
330
1F
100
AcDbEntity
  8
0
  6
Continuous
 62
     7
370
    15
100
AcDbLine
 10
174.1734006686
 20
116.5515870492
 30
0.0
 11
174.1734006686
 21
69.6623907305
 31
0.0
  0
LINE
  5
C0
330
1F
100
AcDbEntity
  8
0
  6
Continuous
 62
     7
370
    15
100
AcDbLine
 10
-174.846321355
 20
116.4812957677
 30
0.0
 11
-165.0983756178
 21
116.4812957677
 31
0.0
  0
ARC
  5
C1
330
1F
100
AcDbEntity
  8
0
  6
Continuous
 62
     7
370
    15
100
AcDbCircle
 10
69.9555632225
 20
-15.5373929133
 30
0.0
 40
35.87615550524594
100
AcDbArc
 50
200.2253568854
 51
339.7746431146
  0
ARC
  5
C2
330
1F
100
AcDbEntity
  8
0
  6
Continuous
 62
     7
370
    15
100
AcDbCircle
 10
0.0195516913
 20
-93.7479994692
 30
0.0
 40
118.4548896783204
100
AcDbArc
 50
191.1173949276
 51
348.8826050723
  0
ARC
  5
C3
330
1F
100
AcDbEntity
  8
0
  6
Continuous
 62
     7
370
    15
100
AcDbCircle
 10
0.0
 20
0.0
 30
0.0
 40
16.82712216188873
100
AcDbArc
 50
38.7152200158
 51
141.2847799842
  0
ARC
  5
C4
330
1F
100
AcDbEntity
  8
0
  6
Continuous
 62
     7
370
    15
100
AcDbCircle
 10
0.0
 20
15.9856996951
 30
0.0
 40
16.80904517638064
100
AcDbArc
 50
38.6382859297
 51
141.3617140703
  0
ARC
  5
C5
330
1F
100
AcDbEntity
  8
0
  6
Continuous
 62
     7
370
    15
100
AcDbCircle
 10
71.1097587388
 20
-14.9293331293
 30
0.0
 40
41.89148421194784
100
AcDbArc
 50
198.0945818594
 51
341.9054181406
  0
ARC
  5
C6
330
1F
100
AcDbEntity
  8
0
  6
Continuous
 62
     7
370
    15
100
AcDbCircle
 10
0.0
 20
-99.3466012438
 30
0.0
 40
127.3086540606725
100
AcDbArc
 50
187.7836873188
 51
352.2163126812
  0
ENDSEC
  0
SECTION
  2
OBJECTS
  0
DICTIONARY
  5
C
330
0
100
AcDbDictionary
281
     1
  3
ACAD_GROUP
350
D
  3
ACAD_LAYOUT
350
1A
  3
ACAD_MLINESTYLE
350
17
  3
ACAD_PLOTSETTINGS
350
19
  3
ACAD_PLOTSTYLENAME
350
E
  3
ACAD_SCALELIST
350
47
  0
DICTIONARY
  5
D
102
{ACAD_REACTORS
330
C
102
}
330
C
100
AcDbDictionary
281
     1
  0
DICTIONARY
  5
1A
102
{ACAD_REACTORS
330
C
102
}
330
C
100
AcDbDictionary
281
     1
  3
Layout1
350
1E
  3
Layout2
350
26
  3
Model
350
22
  0
DICTIONARY
  5
17
102
{ACAD_REACTORS
330
C
102
}
330
C
100
AcDbDictionary
281
     1
  3
Standard
350
18
  0
DICTIONARY
  5
19
102
{ACAD_REACTORS
330
C
102
}
330
C
100
AcDbDictionary
281
     1
  0
ACDBDICTIONARYWDFLT
  5
E
102
{ACAD_REACTORS
330
C
102
}
330
C
100
AcDbDictionary
281
     1
  3
Normal
350
F
100
AcDbDictionaryWithDefault
340
F
  0
DICTIONARY
  5
47
102
{ACAD_REACTORS
330
C
102
}
330
C
100
AcDbDictionary
281
     1
  3
A0
350
48
  3
A1
350
49
  3
A2
350
4A
  3
A3
350
4B
  3
A4
350
4C
  3
A5
350
4D
  3
A6
350
4E
  3
A7
350
4F
  3
A8
350
50
  3
A9
350
51
  3
B0
350
52
  3
B1
350
53
  3
B2
350
54
  3
B3
350
55
  3
B4
350
56
  3
B5
350
57
  3
B6
350
58
  3
B7
350
59
  3
B8
350
5A
  3
B9
350
5B
  3
C0
350
5C
  3
C1
350
5D
  3
C2
350
5E
  3
C3
350
5F
  3
C4
350
60
  3
C5
350
61
  3
C6
350
62
  3
C7
350
63
  3
C8
350
64
  3
C9
350
65
  3
D0
350
66
  3
D1
350
67
  3
D2
350
68
  0
LAYOUT
  5
1E
102
{ACAD_REACTORS
330
1A
102
}
330
1A
100
AcDbPlotSettings
  1

  2
none_device
  4

  6

 40
0.0
 41
0.0
 42
0.0
 43
0.0
 44
0.0
 45
0.0
 46
0.0
 47
0.0
 48
0.0
 49
0.0
140
0.0
141
0.0
142
1.0
143
1.0
 70
   688
 72
     1
 73
     0
 74
     5
  7

 75
    16
147
1.0
148
0.0
149
0.0
100
AcDbLayout
  1
Layout1
 70
     1
 71
     1
 10
0.0
 20
0.0
 11
420.0
 21
297.0
 12
0.0
 22
0.0
 32
0.0
 14
1.0000000000E+20
 24
1.0000000000E+20
 34
1.0000000000E+20
 15
-1.0000000000E+20
 25
-1.0000000000E+20
 35
-1.0000000000E+20
146
0.0
 13
0.0
 23
0.0
 33
0.0
 16
1.0
 26
0.0
 36
0.0
 17
0.0
 27
1.0
 37
0.0
 76
     0
330
1B
  0
LAYOUT
  5
26
102
{ACAD_REACTORS
330
1A
102
}
330
1A
100
AcDbPlotSettings
  1

  2
none_device
  4

  6

 40
0.0
 41
0.0
 42
0.0
 43
0.0
 44
0.0
 45
0.0
 46
0.0
 47
0.0
 48
0.0
 49
0.0
140
0.0
141
0.0
142
1.0
143
1.0
 70
   688
 72
     1
 73
     0
 74
     5
  7

 75
    16
147
1.0
148
0.0
149
0.0
100
AcDbLayout
  1
Layout2
 70
     1
 71
     2
 10
0.0
 20
0.0
 11
0.0
 21
0.0
 12
0.0
 22
0.0
 32
0.0
 14
0.0
 24
0.0
 34
0.0
 15
0.0
 25
0.0
 35
0.0
146
0.0
 13
0.0
 23
0.0
 33
0.0
 16
1.0
 26
0.0
 36
0.0
 17
0.0
 27
1.0
 37
0.0
 76
     0
330
23
  0
LAYOUT
  5
22
102
{ACAD_REACTORS
330
1A
102
}
330
1A
100
AcDbPlotSettings
  1

  2
none_device
  4
ANSI_A_(11.00_x_8.50_Inches)
  6

 40
6.35
 41
19.05
 42
6.35000508
 43
19.05000254
 44
279.4
 45
215.9
 46
133.34999746
 47
88.89999873
 48
0.0
 49
0.0
140
0.0
141
0.0
142
0.014125622
143
1.0
 70
  1696
 72
     0
 73
     0
 74
     0
  7

 75
     0
147
0.0179189148
148
-1300.4909072572
149
0.0
100
AcDbLayout
  1
Model
 70
     1
 71
     0
 10
0.0
 20
0.0
 11
420.0
 21
297.0
 12
0.0
 22
0.0
 32
0.0
 14
-297.8629891868
 24
-297.8629891867
 34
0.0
 15
297.8629891868
 25
297.8629891869
 35
0.0
146
0.0
 13
0.0
 23
0.0
 33
0.0
 16
1.0
 26
0.0
 36
0.0
 17
0.0
 27
1.0
 37
0.0
 76
     0
330
1F
331
29
  0
MLINESTYLE
  5
18
102
{ACAD_REACTORS
330
17
102
}
330
17
100
AcDbMlineStyle
  2
Standard
 70
     0
  3

 62
   256
 51
90.0
 52
90.0
 71
     2
 49
0.5
 62
   256
  6
BYLAYER
 49
-0.5
 62
   256
  6
BYLAYER
  0
ACDBPLACEHOLDER
  5
F
102
{ACAD_REACTORS
330
E
102
}
330
E
  0
SCALE
  5
48
102
{ACAD_REACTORS
330
47
102
}
330
47
100
AcDbScale
 70
     0
300
1:1
140
1.0
141
1.0
290
     1
  0
SCALE
  5
49
102
{ACAD_REACTORS
330
47
102
}
330
47
100
AcDbScale
 70
     0
300
1:2
140
1.0
141
2.0
290
     0
  0
SCALE
  5
4A
102
{ACAD_REACTORS
330
47
102
}
330
47
100
AcDbScale
 70
     0
300
1:4
140
1.0
141
4.0
290
     0
  0
SCALE
  5
4B
102
{ACAD_REACTORS
330
47
102
}
330
47
100
AcDbScale
 70
     0
300
1:5
140
1.0
141
5.0
290
     0
  0
SCALE
  5
4C
102
{ACAD_REACTORS
330
47
102
}
330
47
100
AcDbScale
 70
     0
300
1:8
140
1.0
141
8.0
290
     0
  0
SCALE
  5
4D
102
{ACAD_REACTORS
330
47
102
}
330
47
100
AcDbScale
 70
     0
300
1:10
140
1.0
141
10.0
290
     0
  0
SCALE
  5
4E
102
{ACAD_REACTORS
330
47
102
}
330
47
100
AcDbScale
 70
     0
300
1:16
140
1.0
141
16.0
290
     0
  0
SCALE
  5
4F
102
{ACAD_REACTORS
330
47
102
}
330
47
100
AcDbScale
 70
     0
300
1:20
140
1.0
141
20.0
290
     0
  0
SCALE
  5
50
102
{ACAD_REACTORS
330
47
102
}
330
47
100
AcDbScale
 70
     0
300
1:30
140
1.0
141
30.0
290
     0
  0
SCALE
  5
51
102
{ACAD_REACTORS
330
47
102
}
330
47
100
AcDbScale
 70
     0
300
1:40
140
1.0
141
40.0
290
     0
  0
SCALE
  5
52
102
{ACAD_REACTORS
330
47
102
}
330
47
100
AcDbScale
 70
     0
300
1:50
140
1.0
141
50.0
290
     0
  0
SCALE
  5
53
102
{ACAD_REACTORS
330
47
102
}
330
47
100
AcDbScale
 70
     0
300
1:100
140
1.0
141
100.0
290
     0
  0
SCALE
  5
54
102
{ACAD_REACTORS
330
47
102
}
330
47
100
AcDbScale
 70
     0
300
2:1
140
2.0
141
1.0
290
     0
  0
SCALE
  5
55
102
{ACAD_REACTORS
330
47
102
}
330
47
100
AcDbScale
 70
     0
300
4:1
140
4.0
141
1.0
290
     0
  0
SCALE
  5
56
102
{ACAD_REACTORS
330
47
102
}
330
47
100
AcDbScale
 70
     0
300
8:1
140
8.0
141
1.0
290
     0
  0
SCALE
  5
57
102
{ACAD_REACTORS
330
47
102
}
330
47
100
AcDbScale
 70
     0
300
10:1
140
10.0
141
1.0
290
     0
  0
SCALE
  5
58
102
{ACAD_REACTORS
330
47
102
}
330
47
100
AcDbScale
 70
     0
300
100:1
140
100.0
141
1.0
290
     0
  0
SCALE
  5
59
102
{ACAD_REACTORS
330
47
102
}
330
47
100
AcDbScale
 70
     0
300
1/128" = 1'-0"
140
0.0078125
141
12.0
290
     0
  0
SCALE
  5
5A
102
{ACAD_REACTORS
330
47
102
}
330
47
100
AcDbScale
 70
     0
300
1/64" = 1'-0"
140
0.015625
141
12.0
290
     0
  0
SCALE
  5
5B
102
{ACAD_REACTORS
330
47
102
}
330
47
100
AcDbScale
 70
     0
300
1/32" = 1'-0"
140
0.03125
141
12.0
290
     0
  0
SCALE
  5
5C
102
{ACAD_REACTORS
330
47
102
}
330
47
100
AcDbScale
 70
     0
300
1/16" = 1'-0"
140
0.0625
141
12.0
290
     0
  0
SCALE
  5
5D
102
{ACAD_REACTORS
330
47
102
}
330
47
100
AcDbScale
 70
     0
300
3/32" = 1'-0"
140
0.09375
141
12.0
290
     0
  0
SCALE
  5
5E
102
{ACAD_REACTORS
330
47
102
}
330
47
100
AcDbScale
 70
     0
300
1/8" = 1'-0"
140
0.125
141
12.0
290
     0
  0
SCALE
  5
5F
102
{ACAD_REACTORS
330
47
102
}
330
47
100
AcDbScale
 70
     0
300
3/16" = 1'-0"
140
0.1875
141
12.0
290
     0
  0
SCALE
  5
60
102
{ACAD_REACTORS
330
47
102
}
330
47
100
AcDbScale
 70
     0
300
1/4" = 1'-0"
140
0.25
141
12.0
290
     0
  0
SCALE
  5
61
102
{ACAD_REACTORS
330
47
102
}
330
47
100
AcDbScale
 70
     0
300
3/8" = 1'-0"
140
0.375
141
12.0
290
     0
  0
SCALE
  5
62
102
{ACAD_REACTORS
330
47
102
}
330
47
100
AcDbScale
 70
     0
300
1/2" = 1'-0"
140
0.5
141
12.0
290
     0
  0
SCALE
  5
63
102
{ACAD_REACTORS
330
47
102
}
330
47
100
AcDbScale
 70
     0
300
3/4" = 1'-0"
140
0.75
141
12.0
290
     0
  0
SCALE
  5
64
102
{ACAD_REACTORS
330
47
102
}
330
47
100
AcDbScale
 70
     0
300
1" = 1'-0"
140
1.0
141
12.0
290
     0
  0
SCALE
  5
65
102
{ACAD_REACTORS
330
47
102
}
330
47
100
AcDbScale
 70
     0
300
1-1/2" = 1'-0"
140
1.5
141
12.0
290
     0
  0
SCALE
  5
66
102
{ACAD_REACTORS
330
47
102
}
330
47
100
AcDbScale
 70
     0
300
3" = 1'-0"
140
3.0
141
12.0
290
     0
  0
SCALE
  5
67
102
{ACAD_REACTORS
330
47
102
}
330
47
100
AcDbScale
 70
     0
300
6" = 1'-0"
140
6.0
141
12.0
290
     0
  0
SCALE
  5
68
102
{ACAD_REACTORS
330
47
102
}
330
47
100
AcDbScale
 70
     0
300
1'-0" = 1'-0"
140
12.0
141
12.0
290
     0
  0
ENDSEC
  0
EOF
