  0
SECTION
  2
HEADER
  9
$ACADVER
  1
AC1015
  9
$ACADMAINTVER
 70
     6
  9
$DWGCODEPAGE
  3
ANSI_1252
  9
$INSBASE
 10
0.0
 20
0.0
 30
0.0
  9
$EXTMIN
 10
-1197.64032066
 20
-823.9915752334
 30
0.0
  9
$EXTMAX
 10
1197.64032066
 20
134.6814150222
 30
0.0
  9
$LIMMIN
 10
0.0
 20
0.0
  9
$LIMMAX
 10
420.0
 20
297.0
  9
$ORTHOMODE
 70
     0
  9
$REGENMODE
 70
     1
  9
$FILLMODE
 70
     1
  9
$QTEXTMODE
 70
     0
  9
$MIRRTEXT
 70
     1
  9
$LTSCALE
 40
1.0
  9
$ATTMODE
 70
     1
  9
$TEXTSIZE
 40
3.5
  9
$TRACEWID
 40
1.0
  9
$TEXTSTYLE
  7
Standard
  9
$CLAYER
  8
0
  9
$CELTYPE
  6
ByLayer
  9
$CECOLOR
 62
   256
  9
$CELTSCALE
 40
1.0
  9
$DISPSILH
 70
     0
  9
$DIMSCALE
 40
1.0
  9
$DIMASZ
 40
2.6458333333
  9
$DIMEXO
 40
0.9906
  9
$DIMDLI
 40
3.75
  9
$DIMRND
 40
0.0
  9
$DIMDLE
 40
0.0
  9
$DIMEXE
 40
0.9906
  9
$DIMTP
 40
0.0
  9
$DIMTM
 40
0.0
  9
$DIMTXT
 40
3.5277777778
  9
$DIMCEN
 40
2.5
  9
$DIMTSZ
 40
0.0
  9
$DIMTOL
 70
     0
  9
$DIMLIM
 70
     0
  9
$DIMTIH
 70
     1
  9
$DIMTOH
 70
     1
  9
$DIMSE1
 70
     0
  9
$DIMSE2
 70
     0
  9
$DIMTAD
 70
     1
  9
$DIMZIN
 70
     0
  9
$DIMBLK
  1

  9
$DIMASO
 70
     1
  9
$DIMSHO
 70
     1
  9
$DIMPOST
  1

  9
$DIMAPOST
  1

  9
$DIMALT
 70
     0
  9
$DIMALTD
 70
     3
  9
$DIMALTF
 40
0.0393700787
  9
$DIMLFAC
 40
1.0
  9
$DIMTOFL
 70
     1
  9
$DIMTVP
 40
0.0
  9
$DIMTIX
 70
     0
  9
$DIMSOXD
 70
     0
  9
$DIMSAH
 70
     0
  9
$DIMBLK1
  1

  9
$DIMBLK2
  1

  9
$DIMSTYLE
  2
ISO-25
  9
$DIMCLRD
 70
     0
  9
$DIMCLRE
 70
     0
  9
$DIMCLRT
 70
     0
  9
$DIMTFAC
 40
1.0
  9
$DIMGAP
 40
1.524
  9
$DIMJUST
 70
     0
  9
$DIMSD1
 70
     0
  9
$DIMSD2
 70
     0
  9
$DIMTOLJ
 70
     0
  9
$DIMTZIN
 70
     0
  9
$DIMALTZ
 70
     0
  9
$DIMALTTZ
 70
     0
  9
$DIMUPT
 70
     0
  9
$DIMDEC
 70
     2
  9
$DIMTDEC
 70
     3
  9
$DIMALTU
 70
     2
  9
$DIMALTTD
 70
     3
  9
$DIMTXSTY
  7
Standard
  9
$DIMAUNIT
 70
     0
  9
$DIMADEC
 70
     2
  9
$DIMALTRND
 40
0.0
  9
$DIMAZIN
 70
     0
  9
$DIMDSEP
 70
    44
  9
$DIMATFIT
 70
     3
  9
$DIMFRAC
 70
     0
  9
$DIMLDRBLK
  1

  9
$DIMLUNIT
 70
     2
  9
$DIMLWD
 70
    -2
  9
$DIMLWE
 70
    -2
  9
$DIMTMOVE
 70
     0
  9
$LUNITS
 70
     2
  9
$LUPREC
 70
     2
  9
$SKETCHINC
 40
1.0
  9
$FILLETRAD
 40
10.0
  9
$AUNITS
 70
     0
  9
$AUPREC
 70
     2
  9
$MENU
  1
.
  9
$ELEVATION
 40
0.0
  9
$PELEVATION
 40
0.0
  9
$THICKNESS
 40
0.0
  9
$LIMCHECK
 70
     0
  9
$CHAMFERA
 40
0.0
  9
$CHAMFERB
 40
0.0
  9
$CHAMFERC
 40
0.0
  9
$CHAMFERD
 40
0.0
  9
$SKPOLY
 70
     0
  9
$TDCREATE
 40
2457010.48816522
  9
$TDUCREATE
 40
2457010.446498553
  9
$TDUPDATE
 40
2457010.488199514
  9
$TDUUPDATE
 40
2457010.446532847
  9
$TDINDWG
 40
0.0000000116
  9
$TDUSRTIMER
 40
0.0000000116
  9
$USRTIMER
 70
     1
  9
$ANGBASE
 50
0.0
  9
$ANGDIR
 70
     0
  9
$PDMODE
 70
     0
  9
$PDSIZE
 40
-1.0
  9
$PLINEWID
 40
0.0
  9
$SPLFRAME
 70
     0
  9
$SPLINETYPE
 70
     6
  9
$SPLINESEGS
 70
     8
  9
$HANDSEED
  5
A1
  9
$SURFTAB1
 70
     6
  9
$SURFTAB2
 70
     6
  9
$SURFTYPE
 70
     6
  9
$SURFU
 70
     6
  9
$SURFV
 70
     6
  9
$UCSBASE
  2

  9
$UCSNAME
  2

  9
$UCSORG
 10
0.0
 20
0.0
 30
0.0
  9
$UCSXDIR
 10
1.0
 20
0.0
 30
0.0
  9
$UCSYDIR
 10
0.0
 20
1.0
 30
0.0
  9
$UCSORTHOREF
  2

  9
$UCSORTHOVIEW
 70
     0
  9
$UCSORGTOP
 10
0.0
 20
0.0
 30
0.0
  9
$UCSORGBOTTOM
 10
0.0
 20
0.0
 30
0.0
  9
$UCSORGLEFT
 10
0.0
 20
0.0
 30
0.0
  9
$UCSORGRIGHT
 10
0.0
 20
0.0
 30
0.0
  9
$UCSORGFRONT
 10
0.0
 20
0.0
 30
0.0
  9
$UCSORGBACK
 10
0.0
 20
0.0
 30
0.0
  9
$PUCSBASE
  2

  9
$PUCSNAME
  2

  9
$PUCSORG
 10
0.0
 20
0.0
 30
0.0
  9
$PUCSXDIR
 10
1.0
 20
0.0
 30
0.0
  9
$PUCSYDIR
 10
0.0
 20
1.0
 30
0.0
  9
$PUCSORTHOREF
  2

  9
$PUCSORTHOVIEW
 70
     0
  9
$PUCSORGTOP
 10
0.0
 20
0.0
 30
0.0
  9
$PUCSORGBOTTOM
 10
0.0
 20
0.0
 30
0.0
  9
$PUCSORGLEFT
 10
0.0
 20
0.0
 30
0.0
  9
$PUCSORGRIGHT
 10
0.0
 20
0.0
 30
0.0
  9
$PUCSORGFRONT
 10
0.0
 20
0.0
 30
0.0
  9
$PUCSORGBACK
 10
0.0
 20
0.0
 30
0.0
  9
$USERI1
 70
     0
  9
$USERI2
 70
     0
  9
$USERI3
 70
     0
  9
$USERI4
 70
     0
  9
$USERI5
 70
     0
  9
$USERR1
 40
0.0
  9
$USERR2
 40
0.0
  9
$USERR3
 40
0.0
  9
$USERR4
 40
0.0
  9
$USERR5
 40
0.0
  9
$WORLDVIEW
 70
     1
  9
$SHADEDGE
 70
     3
  9
$SHADEDIF
 70
    70
  9
$TILEMODE
 70
     1
  9
$MAXACTVP
 70
    64
  9
$PINSBASE
 10
0.0
 20
0.0
 30
0.0
  9
$PLIMCHECK
 70
     0
  9
$PEXTMIN
 10
1.0000000000E+20
 20
1.0000000000E+20
 30
1.0000000000E+20
  9
$PEXTMAX
 10
-1.0000000000E+20
 20
-1.0000000000E+20
 30
-1.0000000000E+20
  9
$PLIMMIN
 10
0.0
 20
0.0
  9
$PLIMMAX
 10
420.0
 20
297.0
  9
$UNITMODE
 70
     0
  9
$VISRETAIN
 70
     1
  9
$PLINEGEN
 70
     0
  9
$PSLTSCALE
 70
     1
  9
$TREEDEPTH
 70
  3020
  9
$CMLSTYLE
  2
Standard
  9
$CMLJUST
 70
     0
  9
$CMLSCALE
 40
20.0
  9
$PROXYGRAPHICS
 70
     1
  9
$MEASUREMENT
 70
     1
  9
$CELWEIGHT
370
    -1
  9
$ENDCAPS
280
     0
  9
$JOINSTYLE
280
     0
  9
$LWDISPLAY
290
     1
  9
$INSUNITS
 70
     4
  9
$HYPERLINKBASE
  1

  9
$STYLESHEET
  1

  9
$XEDIT
290
     1
  9
$CEPSNTYPE
380
     0
  9
$PSTYLEMODE
290
     1
  9
$FINGERPRINTGUID
  2
{EC142E43-1CEF-426C-A059-D7E9A9EA3B2B}
  9
$VERSIONGUID
  2
{FAEB1C32-E019-11D5-929B-00C0DF256EC4}
  9
$EXTNAMES
290
     1
  9
$PSVPSCALE
 40
0.0
  9
$OLESTARTUP
290
     0
  0
ENDSEC
  0
SECTION
  2
CLASSES
  0
CLASS
  1
ACDBDICTIONARYWDFLT
  2
AcDbDictionaryWithDefault
  3
ObjectDBX Classes
 90
        0
280
     0
281
     0
  0
CLASS
  1
VISUALSTYLE
  2
AcDbVisualStyle
  3
ObjectDBX Classes
 90
     4095
280
     0
281
     0
  0
CLASS
  1
MATERIAL
  2
AcDbMaterial
  3
ObjectDBX Classes
 90
     1153
280
     0
281
     0
  0
CLASS
  1
SCALE
  2
AcDbScale
  3
ObjectDBX Classes
 90
     1153
280
     0
281
     0
  0
CLASS
  1
SUN
  2
AcDbSun
  3
SCENEOE
 90
     1153
280
     0
281
     0
  0
CLASS
  1
ACDBPLACEHOLDER
  2
AcDbPlaceHolder
  3
ObjectDBX Classes
 90
        0
280
     0
281
     0
  0
CLASS
  1
LAYOUT
  2
AcDbLayout
  3
ObjectDBX Classes
 90
        0
280
     0
281
     0
  0
ENDSEC
  0
SECTION
  2
TABLES
  0
TABLE
  2
VPORT
  5
8
330
0
100
AcDbSymbolTable
 70
     1
  0
VPORT
  5
29
330
8
100
AcDbSymbolTableRecord
100
AcDbViewportTableRecord
  2
*Active
 70
     0
 10
0.0
 20
0.0
 11
1.0
 21
1.0
 12
0.0
 22
-344.6550801056
 13
0.0
 23
0.0
 14
10.0
 24
10.0
 15
10.0
 25
10.0
 16
0.0
 26
0.0
 36
1.0
 17
0.0
 27
0.0
 37
0.0
 40
977.8464500607
 41
2.4985377346
 42
50.0
 43
0.0
 44
0.0
 50
0.0
 51
0.0
 71
     0
 72
   100
 73
     1
 74
     3
 75
     0
 76
     0
 77
     0
 78
     0
281
     0
 65
     1
110
0.0
120
0.0
130
0.0
111
1.0
121
0.0
131
0.0
112
0.0
122
1.0
132
0.0
 79
     0
146
0.0
  0
ENDTAB
  0
TABLE
  2
LTYPE
  5
5
330
0
100
AcDbSymbolTable
 70
     6
  0
LTYPE
  5
14
330
5
100
AcDbSymbolTableRecord
100
AcDbLinetypeTableRecord
  2
ByBlock
 70
     0
  3

 72
    65
 73
     0
 40
0.0
  0
LTYPE
  5
15
330
5
100
AcDbSymbolTableRecord
100
AcDbLinetypeTableRecord
  2
ByLayer
 70
     0
  3

 72
    65
 73
     0
 40
0.0
  0
LTYPE
  5
16
330
5
100
AcDbSymbolTableRecord
100
AcDbLinetypeTableRecord
  2
Continuous
 70
     0
  3
Solid line
 72
    65
 73
     0
 40
0.0
  0
LTYPE
  5
6A
330
5
100
AcDbSymbolTableRecord
100
AcDbLinetypeTableRecord
  2
HIDDEN
 70
     0
  3
Hidden __ __ __ __ __ __ __ __ __ __ __ __ __ __
 72
    65
 73
     2
 40
1.905
 49
1.27
 74
     0
 49
-0.635
 74
     0
  0
LTYPE
  5
6B
330
5
100
AcDbSymbolTableRecord
100
AcDbLinetypeTableRecord
  2
PHANTOM
 70
     0
  3
Phantom ______  __  __  ______  __  __  ______
 72
    65
 73
     6
 40
12.7
 49
6.35
 74
     0
 49
-1.27
 74
     0
 49
1.27
 74
     0
 49
-1.27
 74
     0
 49
1.27
 74
     0
 49
-1.27
 74
     0
  0
LTYPE
  5
6C
330
5
100
AcDbSymbolTableRecord
100
AcDbLinetypeTableRecord
  2
CENTER
 70
     0
  3
Center ____ _ ____ _ ____ _ ____ _ ____ _ ____
 72
    65
 73
     4
 40
10.16
 49
6.35
 74
     0
 49
-1.27
 74
     0
 49
1.27
 74
     0
 49
-1.27
 74
     0
  0
LTYPE
  5
6D
330
5
100
AcDbSymbolTableRecord
100
AcDbLinetypeTableRecord
  2
CENTERX2
 70
     0
  3
Center (2x) ________  __  ________  __  _____
 72
    65
 73
     4
 40
20.32
 49
12.7
 74
     0
 49
-2.54
 74
     0
 49
2.54
 74
     0
 49
-2.54
 74
     0
  0
LTYPE
  5
6E
330
5
100
AcDbSymbolTableRecord
100
AcDbLinetypeTableRecord
  2
DOT2
 70
     0
  3
Dot (.5x) ........................................
 72
    65
 73
     2
 40
0.635
 49
0.0
 74
     0
 49
-0.635
 74
     0
  0
ENDTAB
  0
TABLE
  2
LAYER
  5
2
330
0
100
AcDbSymbolTable
 70
     1
  0
LAYER
  5
10
330
2
100
AcDbSymbolTableRecord
100
AcDbLayerTableRecord
  2
0
 70
     0
 62
     7
  6
Continuous
370
    -3
390
F
  0
ENDTAB
  0
TABLE
  2
STYLE
  5
3
330
0
100
AcDbSymbolTable
 70
     1
  0
STYLE
  5
11
330
3
100
AcDbSymbolTableRecord
100
AcDbTextStyleTableRecord
  2
Standard
 70
     0
 40
0.0
 41
1.0
 50
0.0
 71
     0
 42
3.5
  3
txt
  4

  0
ENDTAB
  0
TABLE
  2
VIEW
  5
6
330
0
100
AcDbSymbolTable
 70
     0
  0
ENDTAB
  0
TABLE
  2
UCS
  5
7
330
0
100
AcDbSymbolTable
 70
     0
  0
ENDTAB
  0
TABLE
  2
APPID
  5
9
330
0
100
AcDbSymbolTable
 70
     1
  0
APPID
  5
12
330
9
100
AcDbSymbolTableRecord
100
AcDbRegAppTableRecord
  2
ACAD
 70
     0
  0
ENDTAB
  0
TABLE
  2
DIMSTYLE
  5
A
330
0
100
AcDbSymbolTable
 70
     1
100
AcDbDimStyleTable
  0
DIMSTYLE
105
27
330
A
100
AcDbSymbolTableRecord
100
AcDbDimStyleTableRecord
  2
ISO-25
 70
     0
 41
2.5
 42
0.625
 43
3.75
 44
1.25
 73
     0
 74
     0
 77
     1
 78
     8
140
2.5
141
2.5
143
0.0393700787
147
0.625
171
     3
172
     1
178
     0
271
     2
272
     2
274
     3
278
    44
283
     0
284
     8
340
11
  0
ENDTAB
  0
TABLE
  2
BLOCK_RECORD
  5
1
330
0
100
AcDbSymbolTable
 70
     1
  0
BLOCK_RECORD
  5
1F
330
1
100
AcDbSymbolTableRecord
100
AcDbBlockTableRecord
  2
*Model_Space
340
22
  0
BLOCK_RECORD
  5
1B
330
1
100
AcDbSymbolTableRecord
100
AcDbBlockTableRecord
  2
*Paper_Space
340
1E
  0
BLOCK_RECORD
  5
23
330
1
100
AcDbSymbolTableRecord
100
AcDbBlockTableRecord
  2
*Paper_Space0
340
26
  0
ENDTAB
  0
ENDSEC
  0
SECTION
  2
BLOCKS
  0
BLOCK
  5
20
330
1F
100
AcDbEntity
  8
0
100
AcDbBlockBegin
  2
*Model_Space
 70
     0
 10
0.0
 20
0.0
 30
0.0
  3
*Model_Space
  1
*Model_Space
  0
ENDBLK
  5
21
330
1F
100
AcDbEntity
  8
0
100
AcDbBlockEnd
  0
BLOCK
  5
1C
330
1B
100
AcDbEntity
 67
     1
  8
0
100
AcDbBlockBegin
  2
*Paper_Space
 70
     0
 10
0.0
 20
0.0
 30
0.0
  3
*Paper_Space
  1
*Paper_Space
  0
ENDBLK
  5
1D
330
1B
100
AcDbEntity
 67
     1
  8
0
100
AcDbBlockEnd
  0
BLOCK
  5
24
330
23
100
AcDbEntity
  8
0
100
AcDbBlockBegin
  2
*Paper_Space0
 70
     0
 10
0.0
 20
0.0
 30
0.0
  3
*Paper_Space0
  1
*Paper_Space0
  0
ENDBLK
  5
25
330
23
100
AcDbEntity
  8
0
100
AcDbBlockEnd
  0
ENDSEC
  0
SECTION
  2
ENTITIES
  0
SPLINE
  5
6F
330
1F
100
AcDbEntity
  8
0
  6
Continuous
 62
     7
370
    15
100
AcDbSpline
210
0.0
220
0.0
230
1.0
 70
     8
 71
     3
 72
    74
 73
    70
 74
     0
 42
0.000000001
 43
0.00000001
 40
0.0
 40
0.0
 40
0.0
 40
0.0
 40
0.0055677740772432
 40
0.0111292334196776
 40
0.0166844048148283
 40
0.0222333151412864
 40
0.02777599136873
 40
0.0333124605579408
 40
0.0388427498608179
 40
0.0443668865203853
 40
0.0498848978707953
 40
0.055396811337329
 40
0.0609026544363899
 40
0.0664024547754953
 40
0.0718962400532601
 40
0.0773840380593802
 40
0.0828658766746061
 40
0.0883417838707163
 40
0.0938117877104833
 40
0.0992759163476344
 40
0.1047341980268108
 40
0.1101866610835168
 40
0.1156333339440698
 40
0.1210742451255396
 40
0.1265094232356867
 40
0.1319388969728942
 40
0.1373626951260934
 40
0.1427808465746868
 40
0.1481933802884626
 40
0.1536003253275071
 40
0.1590017108421095
 40
0.1643975660726626
 40
0.1697879203495576
 40
0.1751728030930734
 40
0.1805522438132607
 40
0.1859262721098206
 40
0.1912949176719773
 40
0.1966582102783457
 40
0.2020161797967925
 40
0.2073688561842934
 40
0.2127162694867821
 40
0.2180584498389959
 40
0.223395427464314
 40
0.2287272326745909
 40
0.2340538958699832
 40
0.2393754475387709
 40
0.2446919182571735
 40
0.2500033386891584
 40
0.3126279827557917
 40
0.3751357118939243
 40
0.4375763841133904
 40
0.5000000181001303
 40
0.5618747666059999
 40
0.6241347016134569
 40
0.6868268305380792
 40
0.7499971959681658
 40
0.7809565494333697
 40
0.8121066685076006
 40
0.8434524975461725
 40
0.8749988888820013
 40
0.887986629192595
 40
0.9011988780401428
 40
0.9146360082956736
 40
0.9282983744179528
 40
0.9421863136198211
 40
0.9563001469457068
 40
0.9706401802681042
 40
0.9852067052100577
 40
1.0
 40
1.0
 40
1.0
 40
1.0
 10
-1146.087887330687
 20
-673.6796379772935
 30
0.0
 10
-1145.866635877692
 20
-672.4380360016128
 30
0.0
 10
-1145.424383905779
 20
-669.9562402229079
 30
0.0
 10
-1144.771718813628
 20
-666.2338223834302
 30
0.0
 10
-1144.127379689661
 20
-662.5142929955622
 30
0.0
 10
-1143.492105983636
 20
-658.7975198074276
 30
0.0
 10
-1142.865699896688
 20
-655.0835381957754
 30
0.0
 10
-1142.248214339853
 20
-651.3723386974361
 30
0.0
 10
-1141.639635160005
 20
-647.6639238437912
 30
0.0
 10
-1141.039966143587
 20
-643.9582929577012
 30
0.0
 10
-1140.449206278209
 20
-640.2554462203115
 30
0.0
 10
-1139.867355835178
 20
-636.5553835831779
 30
0.0
 10
-1139.29441474241
 20
-632.8581050592776
 30
0.0
 10
-1138.73038301968
 20
-629.163610645162
 30
0.0
 10
-1138.175260662196
 20
-625.4719003417797
 30
0.0
 10
-1137.629047671736
 20
-621.782974148909
 30
0.0
 10
-1137.091744048324
 20
-618.0968320666452
 30
0.0
 10
-1136.563349792456
 20
-614.4134740950037
 30
0.0
 10
-1136.0438649045
 20
-610.7329002340259
 30
0.0
 10
-1135.533289384866
 20
-607.0551104837509
 30
0.0
 10
-1135.031623233947
 20
-603.3801048442242
 30
0.0
 10
-1134.538866452149
 20
-599.7078833154924
 30
0.0
 10
-1134.055019039871
 20
-596.0384458976088
 30
0.0
 10
-1133.580080997519
 20
-592.3717925906287
 30
0.0
 10
-1133.114052325497
 20
-588.7079233946124
 30
0.0
 10
-1132.656933024211
 20
-585.0468383096236
 30
0.0
 10
-1132.208723094068
 20
-581.3885373357303
 30
0.0
 10
-1131.769422535477
 20
-577.733020473004
 30
0.0
 10
-1131.339031348845
 20
-574.0802877215215
 30
0.0
 10
-1130.917549534585
 20
-570.4303390813624
 30
0.0
 10
-1130.504977093105
 20
-566.7831745526112
 30
0.0
 10
-1130.101314024819
 20
-563.1387941353564
 30
0.0
 10
-1129.706560330142
 20
-559.4971978296908
 30
0.0
 10
-1129.320716009482
 20
-555.8583856357111
 30
0.0
 10
-1128.943781063258
 20
-552.2223575535185
 30
0.0
 10
-1128.575755491886
 20
-548.5891135832197
 30
0.0
 10
-1128.216639295765
 20
-544.95865372492
 30
0.0
 10
-1127.866432475379
 20
-541.33097797875
 30
0.0
 10
-1127.52513503089
 20
-537.7060863447675
 30
0.0
 10
-1127.192746963674
 20
-534.083978823323
 30
0.0
 10
-1126.869268270569
 20
-530.4646554136956
 30
0.0
 10
-1126.554698965336
 20
-526.8481161191794
 30
0.0
 10
-1126.24903899867
 20
-523.2343609281265
 30
0.0
 10
-1125.952288556298
 20
-519.6233898845935
 30
0.0
 10
-1125.664446948047
 20
-516.0152028250686
 30
0.0
 10
-1125.385516747964
 20
-512.4098003595992
 30
0.0
 10
-1125.11548836532
 20
-508.8071802154367
 30
0.0
 10
-1123.915211345337
 20
-492.2581785018821
 30
0.0
 10
-1122.226490435966
 20
-462.7549940172011
 30
0.0
 10
-1120.995388464701
 20
-420.2801155775429
 30
0.0
 10
-1120.966355666854
 20
-377.8326123346861
 30
0.0
 10
-1122.135677367289
 20
-335.5447007434294
 30
0.0
 10
-1124.494150008886
 20
-293.3476371290493
 30
0.0
 10
-1128.023971502018
 20
-251.1714485130283
 30
0.0
 10
-1132.736128592683
 20
-208.8159074856124
 30
0.0
 10
-1137.613159641687
 20
-173.6258208000706
 30
0.0
 10
-1142.05968925104
 20
-145.5985099972934
 30
0.0
 10
-1145.641087660793
 20
-124.7344281231101
 30
0.0
 10
-1149.508276283162
 20
-103.7862753505995
 30
0.0
 10
-1152.835300321149
 20
-86.92323187461653
 30
0.0
 10
-1155.48133098762
 20
-74.11343814949728
 30
0.0
 10
-1157.34608340433
 20
-65.3309429755739
 30
0.0
 10
-1159.288891511253
 20
-56.40893847508066
 30
0.0
 10
-1161.310104043555
 20
-47.34749015337558
 30
0.0
 10
-1163.409685085938
 20
-38.14659421592204
 30
0.0
 10
-1165.587418856832
 20
-28.80619471749757
 30
0.0
 10
-1167.844230454664
 20
-19.32652243044231
 30
0.0
 10
-1170.176560334534
 20
-9.706688623700998
 30
0.0
 10
-1171.77848143046
 20
-3.252180685318906
 30
0.0
 10
-1172.58562845039
 20
-0.000000000000222
 30
0.0
  0
SPLINE
  5
72
330
1F
100
AcDbEntity
  8
0
  6
Continuous
 62
     7
370
    15
100
AcDbSpline
210
0.0
220
0.0
230
1.0
 70
     8
 71
     3
 72
    59
 73
    55
 74
     0
 42
0.000000001
 43
0.00000001
 40
0.0
 40
0.0
 40
0.0
 40
0.0
 40
0.0074250133125514
 40
0.0147933004919538
 40
0.0221048951206
 40
0.0293598315681548
 40
0.0365581450158588
 40
0.0436998714817523
 40
0.0507850478468691
 40
0.0578137118824374
 40
0.0647859022781372
 40
0.0717016586714616
 40
0.078561021678231
 40
0.0853640329243178
 40
0.0921107350786337
 40
0.0988011718874398
 40
0.1054353882100454
 40
0.1120134300559555
 40
0.11853534462354
 40
0.1250011803402992
 40
0.1502545446040664
 40
0.1753789341118264
 40
0.2003768191251471
 40
0.2252507075956541
 40
0.250003145165511
 40
0.3131734994644232
 40
0.3758656173545173
 40
0.4381255414159703
 40
0.5000002790560394
 40
0.562423902061455
 40
0.6248645632967669
 40
0.6873722814391942
 40
0.7499969144898772
 40
0.761638029178067
 40
0.77330355111695
 40
0.7849938009454129
 40
0.7967090972719906
 40
0.8084497566661434
 40
0.8202160936501766
 40
0.8320084206917951
 40
0.8438270481972834
 40
0.8556722845053023
 40
0.8675444358812949
 40
0.8794438065124873
 40
0.8913706985034807
 40
0.9033254118724207
 40
0.9153082445477323
 40
0.9273194923654186
 40
0.9393594490669004
 40
0.9514284062973982
 40
0.9635266536048368
 40
0.9756544784392678
 40
0.9878121661527962
 40
1.0
 40
1.0
 40
1.0
 40
1.0
 10
1172.58562845039
 20
-0.000000000000222
 30
0.0
 10
1172.179538067591
 20
-1.632083838109866
 30
0.0
 10
1171.370459779545
 20
-4.883782606703912
 30
0.0
 10
1170.174495964538
 20
-9.745855336964592
 30
0.0
 10
1168.997398569574
 20
-14.57288323132172
 30
0.0
 10
1167.840079464813
 20
-19.36509378619444
 30
0.0
 10
1166.702297120206
 20
-24.12242676048293
 30
0.0
 10
1165.58411548183
 20
-28.8448981205518
 30
0.0
 10
1164.485517596856
 20
-33.53250365153853
 30
0.0
 10
1163.40650793526
 20
-38.18524448343863
 30
0.0
 10
1162.347085290683
 20
-42.80312033099576
 30
0.0
 10
1161.307249971902
 20
-47.38613128679131
 30
0.0
 10
1160.287001838877
 20
-51.93427733497996
 30
0.0
 10
1159.286341043752
 20
-56.44755852271183
 30
0.0
 10
1158.305267019678
 20
-60.92597475755424
 30
0.0
 10
1157.343781752424
 20
-65.36952644069576
 30
0.0
 10
1156.401877843585
 20
-69.77821216354879
 30
0.0
 10
1155.479582466405
 20
-74.15203718810042
 30
0.0
 10
1154.576795410167
 20
-78.49098220164325
 30
0.0
 10
1152.836192266882
 20
-86.97632744347794
 30
0.0
 10
1150.328004895636
 20
-99.60559545468942
 30
0.0
 10
1147.166356391391
 20
-116.3839742968555
 30
0.0
 10
1144.18743962388
 20
-133.1084706035401
 30
0.0
 10
1141.390921991814
 20
-149.779038109973
 30
0.0
 10
1137.420127808624
 20
-175.0185711891477
 30
0.0
 10
1132.736129319108
 20
-208.8159258833015
 30
0.0
 10
1128.023971240472
 20
-251.1714435961387
 30
0.0
 10
1124.494150345874
 20
-293.3476385058224
 30
0.0
 10
1122.135676291383
 20
-335.5447000448316
 30
0.0
 10
1120.966359675604
 20
-377.8326137295781
 30
0.0
 10
1120.995373501083
 20
-420.2801106937874
 30
0.0
 10
1122.226546377917
 20
-462.7550121907758
 30
0.0
 10
1123.997018167361
 20
-493.6897558915942
 30
0.0
 10
1125.432799306622
 20
-513.1011069928552
 30
0.0
 10
1126.059194184759
 20
-521.0035369978988
 30
0.0
 10
1126.728305323177
 20
-528.9193173219786
 30
0.0
 10
1127.440174931904
 20
-536.8484575823546
 30
0.0
 10
1128.194791637932
 20
-544.7909551853314
 30
0.0
 10
1128.992158471735
 20
-552.7468108202311
 30
0.0
 10
1129.832274592134
 20
-560.716024294441
 30
0.0
 10
1130.715140198286
 20
-568.69859565314
 30
0.0
 10
1131.640755211819
 20
-576.6945248778167
 30
0.0
 10
1132.609119621441
 20
-584.7038119690391
 30
0.0
 10
1133.620233426614
 20
-592.7264569177025
 30
0.0
 10
1134.674096516742
 20
-600.7624597370655
 30
0.0
 10
1135.770709212847
 20
-608.8118203630564
 30
0.0
 10
1136.910070215029
 20
-616.8745390221377
 30
0.0
 10
1138.09218429618
 20
-624.9506148549935
 30
0.0
 10
1139.317033484602
 20
-633.0400510708761
 30
0.0
 10
1140.584684999048
 20
-641.1428356422394
 30
0.0
 10
1141.894886970276
 20
-649.2590136142884
 30
0.0
 10
1143.248582735925
 20
-657.3884162570289
 30
0.0
 10
1144.642238636037
 20
-665.5316756000981
 30
0.0
 10
1145.605606798415
 20
-670.9614093739345
 30
0.0
 10
1146.087887330686
 20
-673.6796379772932
 30
0.0
  0
LINE
  5
89
330
1F
100
AcDbEntity
  8
0
  6
Continuous
 62
     7
370
    15
100
AcDbLine
 10
-1172.5856284504
 20
0.0
 30
0.0
 11
1172.5856284504
 21
0.0
 31
0.0
  0
LINE
  5
8A
330
1F
100
AcDbEntity
  8
0
  6
Continuous
 62
     7
370
    15
100
AcDbLine
 10
-1146.0878873307
 20
-673.6796379773
 30
0.0
 11
1146.0878873307
 21
-673.6796379773
 31
0.0
  0
LINE
  5
8B
330
1F
100
AcDbEntity
  8
0
  6
Continuous
 62
     7
370
    15
100
AcDbLine
 10
-1163.8546478675
 20
-773.2421946597
 30
0.0
 11
1163.8546478675
 21
-773.2421946597
 31
0.0
  0
LINE
  5
8C
330
1F
100
AcDbEntity
  8
0
  6
Continuous
 62
     7
370
    15
100
AcDbLine
 10
-1146.0878873307
 20
-673.6796379773
 30
0.0
 11
-1163.8546478675
 21
-773.2421946597
 31
0.0
  0
LINE
  5
8D
330
1F
100
AcDbEntity
  8
0
  6
Continuous
 62
     7
370
    15
100
AcDbLine
 10
1146.0878873307
 20
-673.6796379773
 30
0.0
 11
1163.8546478675
 21
-773.2421946597
 31
0.0
  0
LINE
  5
8E
330
1F
100
AcDbEntity
  8
0
  6
Continuous
 62
     7
370
    15
100
AcDbLine
 10
1196.3875860495
 20
95.0
 30
0.0
 11
1172.5856284504
 21
0.0
 31
0.0
  0
LINE
  5
8F
330
1F
100
AcDbEntity
  8
0
  6
Continuous
 62
     7
370
    15
100
AcDbLine
 10
-1196.3875860495
 20
95.0
 30
0.0
 11
1196.3875860495
 21
95.0
 31
0.0
  0
LINE
  5
90
330
1F
100
AcDbEntity
  8
0
  6
Continuous
 62
     7
370
    15
100
AcDbLine
 10
-1196.3875860495
 20
95.0
 30
0.0
 11
-1172.5856284504
 21
0.0
 31
0.0
  0
LINE
  5
91
330
1F
100
AcDbEntity
  8
0
  6
Continuous
 62
     7
370
    15
100
AcDbLine
 10
-1164.2675021909
 20
-774.429018551
 30
0.0
 11
1164.2675021909
 21
-774.429018551
 31
0.0
  0
LINE
  5
92
330
1F
100
AcDbEntity
  8
0
  6
Continuous
 62
     7
370
    15
100
AcDbLine
 10
1164.2675021909
 20
-774.429018551
 30
0.0
 11
1173.5708625122
 21
-811.5612261369
 31
0.0
  0
LINE
  5
93
330
1F
100
AcDbEntity
  8
0
  6
Continuous
 62
     7
370
    15
100
AcDbLine
 10
-1163.8706870875
 20
-823.9915752334
 30
0.0
 11
1163.8706870875
 21
-823.9915752334
 31
0.0
  0
LINE
  5
94
330
1F
100
AcDbEntity
  8
0
  6
Continuous
 62
     7
370
    15
100
AcDbLine
 10
-1164.2675021909
 20
-774.429018551
 30
0.0
 11
-1173.5708625122
 21
-811.5612261369
 31
0.0
  0
LINE
  5
95
330
1F
100
AcDbEntity
  8
0
  6
Continuous
 62
     7
370
    15
100
AcDbLine
 10
1197.64032066
 20
105.6814150222
 30
0.0
 11
-1197.64032066
 21
105.6814150222
 31
0.0
  0
LINE
  5
96
330
1F
100
AcDbEntity
  8
0
  6
Continuous
 62
     7
370
    15
100
AcDbLine
 10
-1197.64032066
 20
105.6814150222
 30
0.0
 11
-1197.64032066
 21
124.6814150222
 31
0.0
  0
LINE
  5
97
330
1F
100
AcDbEntity
  8
0
  6
Continuous
 62
     7
370
    15
100
AcDbLine
 10
-1187.64032066
 20
134.6814150222
 30
0.0
 11
1187.64032066
 21
134.6814150222
 31
0.0
  0
LINE
  5
98
330
1F
100
AcDbEntity
  8
0
  6
Continuous
 62
     7
370
    15
100
AcDbLine
 10
1197.64032066
 20
124.6814150222
 30
0.0
 11
1197.64032066
 21
105.6814150222
 31
0.0
  0
LINE
  5
99
330
1F
100
AcDbEntity
  8
0
  6
Continuous
 62
     7
370
    15
100
AcDbLine
 10
1197.64032066
 20
105.6814150222
 30
0.0
 11
1196.3875860495
 21
95.0
 31
0.0
  0
LINE
  5
9A
330
1F
100
AcDbEntity
  8
0
  6
Continuous
 62
     7
370
    15
100
AcDbLine
 10
-1196.3875860495
 20
95.0
 30
0.0
 11
-1197.64032066
 21
105.6814150222
 31
0.0
  0
LINE
  5
9B
330
1F
100
AcDbEntity
  8
0
  6
Continuous
 62
     7
370
    15
100
AcDbLine
 10
-1164.2675021909
 20
-774.429018551
 30
0.0
 11
-1163.8546478675
 21
-773.2421946597
 31
0.0
  0
LINE
  5
9C
330
1F
100
AcDbEntity
  8
0
  6
Continuous
 62
     7
370
    15
100
AcDbLine
 10
1163.8546478675
 20
-773.2421946597
 30
0.0
 11
1164.2675021909
 21
-774.429018551
 31
0.0
  0
ARC
  5
9D
330
1F
100
AcDbEntity
  8
0
  6
Continuous
 62
     7
370
    15
100
AcDbCircle
 10
1163.8706870875
 20
-813.9915752334
 30
0.0
 40
10.00000000000055
100
AcDbArc
 50
270.0
 51
14.0657326848
  0
ARC
  5
9E
330
1F
100
AcDbEntity
  8
0
  6
Continuous
 62
     7
370
    15
100
AcDbCircle
 10
-1163.8706870875
 20
-813.9915752334
 30
0.0
 40
10.00000000000069
100
AcDbArc
 50
165.9342673152
 51
270.0
  0
ARC
  5
9F
330
1F
100
AcDbEntity
  8
0
  6
Continuous
 62
     7
370
    15
100
AcDbCircle
 10
-1187.64032066
 20
124.6814150222
 30
0.0
 40
10.00000000000068
100
AcDbArc
 50
90.0
 51
180.0
  0
ARC
  5
A0
330
1F
100
AcDbEntity
  8
0
  6
Continuous
 62
     7
370
    15
100
AcDbCircle
 10
1187.64032066
 20
124.6814150222
 30
0.0
 40
10.00000000000001
100
AcDbArc
 50
0.0
 51
90.0
  0
ENDSEC
  0
SECTION
  2
OBJECTS
  0
DICTIONARY
  5
C
330
0
100
AcDbDictionary
281
     1
  3
ACAD_GROUP
350
D
  3
ACAD_LAYOUT
350
1A
  3
ACAD_MLINESTYLE
350
17
  3
ACAD_PLOTSETTINGS
350
19
  3
ACAD_PLOTSTYLENAME
350
E
  3
ACAD_SCALELIST
350
47
  0
DICTIONARY
  5
D
102
{ACAD_REACTORS
330
C
102
}
330
C
100
AcDbDictionary
281
     1
  0
DICTIONARY
  5
1A
102
{ACAD_REACTORS
330
C
102
}
330
C
100
AcDbDictionary
281
     1
  3
Layout1
350
1E
  3
Layout2
350
26
  3
Model
350
22
  0
DICTIONARY
  5
17
102
{ACAD_REACTORS
330
C
102
}
330
C
100
AcDbDictionary
281
     1
  3
Standard
350
18
  0
DICTIONARY
  5
19
102
{ACAD_REACTORS
330
C
102
}
330
C
100
AcDbDictionary
281
     1
  0
ACDBDICTIONARYWDFLT
  5
E
102
{ACAD_REACTORS
330
C
102
}
330
C
100
AcDbDictionary
281
     1
  3
Normal
350
F
100
AcDbDictionaryWithDefault
340
F
  0
DICTIONARY
  5
47
102
{ACAD_REACTORS
330
C
102
}
330
C
100
AcDbDictionary
281
     1
  3
A0
350
48
  3
A1
350
49
  3
A2
350
4A
  3
A3
350
4B
  3
A4
350
4C
  3
A5
350
4D
  3
A6
350
4E
  3
A7
350
4F
  3
A8
350
50
  3
A9
350
51
  3
B0
350
52
  3
B1
350
53
  3
B2
350
54
  3
B3
350
55
  3
B4
350
56
  3
B5
350
57
  3
B6
350
58
  3
B7
350
59
  3
B8
350
5A
  3
B9
350
5B
  3
C0
350
5C
  3
C1
350
5D
  3
C2
350
5E
  3
C3
350
5F
  3
C4
350
60
  3
C5
350
61
  3
C6
350
62
  3
C7
350
63
  3
C8
350
64
  3
C9
350
65
  3
D0
350
66
  3
D1
350
67
  3
D2
350
68
  0
LAYOUT
  5
1E
102
{ACAD_REACTORS
330
1A
102
}
330
1A
100
AcDbPlotSettings
  1

  2
none_device
  4

  6

 40
0.0
 41
0.0
 42
0.0
 43
0.0
 44
0.0
 45
0.0
 46
0.0
 47
0.0
 48
0.0
 49
0.0
140
0.0
141
0.0
142
1.0
143
1.0
 70
   688
 72
     1
 73
     0
 74
     5
  7

 75
    16
147
1.0
148
0.0
149
0.0
100
AcDbLayout
  1
Layout1
 70
     1
 71
     1
 10
0.0
 20
0.0
 11
420.0
 21
297.0
 12
0.0
 22
0.0
 32
0.0
 14
1.0000000000E+20
 24
1.0000000000E+20
 34
1.0000000000E+20
 15
-1.0000000000E+20
 25
-1.0000000000E+20
 35
-1.0000000000E+20
146
0.0
 13
0.0
 23
0.0
 33
0.0
 16
1.0
 26
0.0
 36
0.0
 17
0.0
 27
1.0
 37
0.0
 76
     0
330
1B
  0
LAYOUT
  5
26
102
{ACAD_REACTORS
330
1A
102
}
330
1A
100
AcDbPlotSettings
  1

  2
none_device
  4

  6

 40
0.0
 41
0.0
 42
0.0
 43
0.0
 44
0.0
 45
0.0
 46
0.0
 47
0.0
 48
0.0
 49
0.0
140
0.0
141
0.0
142
1.0
143
1.0
 70
   688
 72
     1
 73
     0
 74
     5
  7

 75
    16
147
1.0
148
0.0
149
0.0
100
AcDbLayout
  1
Layout2
 70
     1
 71
     2
 10
0.0
 20
0.0
 11
0.0
 21
0.0
 12
0.0
 22
0.0
 32
0.0
 14
0.0
 24
0.0
 34
0.0
 15
0.0
 25
0.0
 35
0.0
146
0.0
 13
0.0
 23
0.0
 33
0.0
 16
1.0
 26
0.0
 36
0.0
 17
0.0
 27
1.0
 37
0.0
 76
     0
330
23
  0
LAYOUT
  5
22
102
{ACAD_REACTORS
330
1A
102
}
330
1A
100
AcDbPlotSettings
  1

  2
none_device
  4
ANSI_A_(11.00_x_8.50_Inches)
  6

 40
6.35
 41
19.05
 42
6.35000508
 43
19.05000254
 44
279.4
 45
215.9
 46
133.34999746
 47
128.7006222741
 48
0.0
 49
0.0
140
0.0
141
0.0
142
0.0045464401
143
1.0
 70
  1696
 72
     0
 73
     0
 74
     0
  7

 75
     0
147
0.0179189148
148
-1300.4909072572
149
0.0
100
AcDbLayout
  1
Model
 70
     1
 71
     0
 10
0.0
 20
0.0
 11
420.0
 21
297.0
 12
0.0
 22
0.0
 32
0.0
 14
-1197.64032066
 24
-823.9915752334
 34
0.0
 15
1197.64032066
 25
134.6814150222
 35
0.0
146
0.0
 13
0.0
 23
0.0
 33
0.0
 16
1.0
 26
0.0
 36
0.0
 17
0.0
 27
1.0
 37
0.0
 76
     0
330
1F
331
29
  0
MLINESTYLE
  5
18
102
{ACAD_REACTORS
330
17
102
}
330
17
100
AcDbMlineStyle
  2
Standard
 70
     0
  3

 62
   256
 51
90.0
 52
90.0
 71
     2
 49
0.5
 62
   256
  6
BYLAYER
 49
-0.5
 62
   256
  6
BYLAYER
  0
ACDBPLACEHOLDER
  5
F
102
{ACAD_REACTORS
330
E
102
}
330
E
  0
SCALE
  5
48
102
{ACAD_REACTORS
330
47
102
}
330
47
100
AcDbScale
 70
     0
300
1:1
140
1.0
141
1.0
290
     1
  0
SCALE
  5
49
102
{ACAD_REACTORS
330
47
102
}
330
47
100
AcDbScale
 70
     0
300
1:2
140
1.0
141
2.0
290
     0
  0
SCALE
  5
4A
102
{ACAD_REACTORS
330
47
102
}
330
47
100
AcDbScale
 70
     0
300
1:4
140
1.0
141
4.0
290
     0
  0
SCALE
  5
4B
102
{ACAD_REACTORS
330
47
102
}
330
47
100
AcDbScale
 70
     0
300
1:5
140
1.0
141
5.0
290
     0
  0
SCALE
  5
4C
102
{ACAD_REACTORS
330
47
102
}
330
47
100
AcDbScale
 70
     0
300
1:8
140
1.0
141
8.0
290
     0
  0
SCALE
  5
4D
102
{ACAD_REACTORS
330
47
102
}
330
47
100
AcDbScale
 70
     0
300
1:10
140
1.0
141
10.0
290
     0
  0
SCALE
  5
4E
102
{ACAD_REACTORS
330
47
102
}
330
47
100
AcDbScale
 70
     0
300
1:16
140
1.0
141
16.0
290
     0
  0
SCALE
  5
4F
102
{ACAD_REACTORS
330
47
102
}
330
47
100
AcDbScale
 70
     0
300
1:20
140
1.0
141
20.0
290
     0
  0
SCALE
  5
50
102
{ACAD_REACTORS
330
47
102
}
330
47
100
AcDbScale
 70
     0
300
1:30
140
1.0
141
30.0
290
     0
  0
SCALE
  5
51
102
{ACAD_REACTORS
330
47
102
}
330
47
100
AcDbScale
 70
     0
300
1:40
140
1.0
141
40.0
290
     0
  0
SCALE
  5
52
102
{ACAD_REACTORS
330
47
102
}
330
47
100
AcDbScale
 70
     0
300
1:50
140
1.0
141
50.0
290
     0
  0
SCALE
  5
53
102
{ACAD_REACTORS
330
47
102
}
330
47
100
AcDbScale
 70
     0
300
1:100
140
1.0
141
100.0
290
     0
  0
SCALE
  5
54
102
{ACAD_REACTORS
330
47
102
}
330
47
100
AcDbScale
 70
     0
300
2:1
140
2.0
141
1.0
290
     0
  0
SCALE
  5
55
102
{ACAD_REACTORS
330
47
102
}
330
47
100
AcDbScale
 70
     0
300
4:1
140
4.0
141
1.0
290
     0
  0
SCALE
  5
56
102
{ACAD_REACTORS
330
47
102
}
330
47
100
AcDbScale
 70
     0
300
8:1
140
8.0
141
1.0
290
     0
  0
SCALE
  5
57
102
{ACAD_REACTORS
330
47
102
}
330
47
100
AcDbScale
 70
     0
300
10:1
140
10.0
141
1.0
290
     0
  0
SCALE
  5
58
102
{ACAD_REACTORS
330
47
102
}
330
47
100
AcDbScale
 70
     0
300
100:1
140
100.0
141
1.0
290
     0
  0
SCALE
  5
59
102
{ACAD_REACTORS
330
47
102
}
330
47
100
AcDbScale
 70
     0
300
1/128" = 1'-0"
140
0.0078125
141
12.0
290
     0
  0
SCALE
  5
5A
102
{ACAD_REACTORS
330
47
102
}
330
47
100
AcDbScale
 70
     0
300
1/64" = 1'-0"
140
0.015625
141
12.0
290
     0
  0
SCALE
  5
5B
102
{ACAD_REACTORS
330
47
102
}
330
47
100
AcDbScale
 70
     0
300
1/32" = 1'-0"
140
0.03125
141
12.0
290
     0
  0
SCALE
  5
5C
102
{ACAD_REACTORS
330
47
102
}
330
47
100
AcDbScale
 70
     0
300
1/16" = 1'-0"
140
0.0625
141
12.0
290
     0
  0
SCALE
  5
5D
102
{ACAD_REACTORS
330
47
102
}
330
47
100
AcDbScale
 70
     0
300
3/32" = 1'-0"
140
0.09375
141
12.0
290
     0
  0
SCALE
  5
5E
102
{ACAD_REACTORS
330
47
102
}
330
47
100
AcDbScale
 70
     0
300
1/8" = 1'-0"
140
0.125
141
12.0
290
     0
  0
SCALE
  5
5F
102
{ACAD_REACTORS
330
47
102
}
330
47
100
AcDbScale
 70
     0
300
3/16" = 1'-0"
140
0.1875
141
12.0
290
     0
  0
SCALE
  5
60
102
{ACAD_REACTORS
330
47
102
}
330
47
100
AcDbScale
 70
     0
300
1/4" = 1'-0"
140
0.25
141
12.0
290
     0
  0
SCALE
  5
61
102
{ACAD_REACTORS
330
47
102
}
330
47
100
AcDbScale
 70
     0
300
3/8" = 1'-0"
140
0.375
141
12.0
290
     0
  0
SCALE
  5
62
102
{ACAD_REACTORS
330
47
102
}
330
47
100
AcDbScale
 70
     0
300
1/2" = 1'-0"
140
0.5
141
12.0
290
     0
  0
SCALE
  5
63
102
{ACAD_REACTORS
330
47
102
}
330
47
100
AcDbScale
 70
     0
300
3/4" = 1'-0"
140
0.75
141
12.0
290
     0
  0
SCALE
  5
64
102
{ACAD_REACTORS
330
47
102
}
330
47
100
AcDbScale
 70
     0
300
1" = 1'-0"
140
1.0
141
12.0
290
     0
  0
SCALE
  5
65
102
{ACAD_REACTORS
330
47
102
}
330
47
100
AcDbScale
 70
     0
300
1-1/2" = 1'-0"
140
1.5
141
12.0
290
     0
  0
SCALE
  5
66
102
{ACAD_REACTORS
330
47
102
}
330
47
100
AcDbScale
 70
     0
300
3" = 1'-0"
140
3.0
141
12.0
290
     0
  0
SCALE
  5
67
102
{ACAD_REACTORS
330
47
102
}
330
47
100
AcDbScale
 70
     0
300
6" = 1'-0"
140
6.0
141
12.0
290
     0
  0
SCALE
  5
68
102
{ACAD_REACTORS
330
47
102
}
330
47
100
AcDbScale
 70
     0
300
1'-0" = 1'-0"
140
12.0
141
12.0
290
     0
  0
ENDSEC
  0
EOF
