  0
SECTION
  2
HEADER
  9
$ACADVER
  1
AC1014
  9
$ACADMAINTVER
 70
     9
  9
$DWGCODEPAGE
  3
ANSI_1252
  9
$INSBASE
 10
0.0
 20
0.0
 30
0.0
  9
$EXTMIN
 10
1171.53864708552
 20
3481.72379988383
 30
0.0
  9
$EXTMAX
 10
2421.68864708552
 20
3931.87379988383
 30
0.0
  9
$LIMMIN
 10
0.0
 20
0.0
  9
$LIMMAX
 10
12.0
 20
9.0
  9
$ORTHOMODE
 70
     0
  9
$REGENMODE
 70
     1
  9
$FILLMODE
 70
     1
  9
$QTEXTMODE
 70
     0
  9
$MIRRTEXT
 70
     1
  9
$DRAGMODE
 70
     2
  9
$LTSCALE
 40
1.0
  9
$OSMODE
 70
    37
  9
$ATTMODE
 70
     1
  9
$TEXTSIZE
 40
0.2
  9
$TRACEWID
 40
0.05
  9
$TEXTSTYLE
  7
STANDARD
  9
$CLAYER
  8
0
  9
$CELTYPE
  6
BYLAYER
  9
$CECOLOR
 62
   256
  9
$CELTSCALE
 40
1.0
  9
$DELOBJ
 70
     1
  9
$DISPSILH
 70
     0
  9
$DIMSCALE
 40
1.0
  9
$DIMASZ
 40
0.18
  9
$DIMEXO
 40
0.0625
  9
$DIMDLI
 40
0.38
  9
$DIMRND
 40
0.0
  9
$DIMDLE
 40
0.0
  9
$DIMEXE
 40
0.18
  9
$DIMTP
 40
0.0
  9
$DIMTM
 40
0.0
  9
$DIMTXT
 40
0.18
  9
$DIMCEN
 40
0.09
  9
$DIMTSZ
 40
0.0
  9
$DIMTOL
 70
     0
  9
$DIMLIM
 70
     0
  9
$DIMTIH
 70
     1
  9
$DIMTOH
 70
     1
  9
$DIMSE1
 70
     0
  9
$DIMSE2
 70
     0
  9
$DIMTAD
 70
     0
  9
$DIMZIN
 70
     0
  9
$DIMBLK
  1

  9
$DIMASO
 70
     1
  9
$DIMSHO
 70
     1
  9
$DIMPOST
  1

  9
$DIMAPOST
  1

  9
$DIMALT
 70
     0
  9
$DIMALTD
 70
     2
  9
$DIMALTF
 40
25.4
  9
$DIMLFAC
 40
1.0
  9
$DIMTOFL
 70
     0
  9
$DIMTVP
 40
0.0
  9
$DIMTIX
 70
     0
  9
$DIMSOXD
 70
     0
  9
$DIMSAH
 70
     0
  9
$DIMBLK1
  1

  9
$DIMBLK2
  1

  9
$DIMSTYLE
  2
STANDARD
  9
$DIMCLRD
 70
     0
  9
$DIMCLRE
 70
     0
  9
$DIMCLRT
 70
     0
  9
$DIMTFAC
 40
1.0
  9
$DIMGAP
 40
0.09
  9
$DIMJUST
 70
     0
  9
$DIMSD1
 70
     0
  9
$DIMSD2
 70
     0
  9
$DIMTOLJ
 70
     1
  9
$DIMTZIN
 70
     0
  9
$DIMALTZ
 70
     0
  9
$DIMALTTZ
 70
     0
  9
$DIMFIT
 70
     3
  9
$DIMUPT
 70
     0
  9
$DIMUNIT
 70
     2
  9
$DIMDEC
 70
     4
  9
$DIMTDEC
 70
     4
  9
$DIMALTU
 70
     2
  9
$DIMALTTD
 70
     2
  9
$DIMTXSTY
  7
STANDARD
  9
$DIMAUNIT
 70
     0
  9
$LUNITS
 70
     2
  9
$LUPREC
 70
     4
  9
$SKETCHINC
 40
0.1
  9
$FILLETRAD
 40
0.5
  9
$AUNITS
 70
     0
  9
$AUPREC
 70
     0
  9
$MENU
  1
.
  9
$ELEVATION
 40
0.0
  9
$PELEVATION
 40
0.0
  9
$THICKNESS
 40
0.0
  9
$LIMCHECK
 70
     0
  9
$CHAMFERA
 40
0.5
  9
$CHAMFERB
 40
0.5
  9
$CHAMFERC
 40
1.0
  9
$CHAMFERD
 40
0.0
  9
$SKPOLY
 70
     0
  9
$TDCREATE
 40
2458831.421660544
  9
$TDUPDATE
 40
2458831.421660556
  9
$TDINDWG
 40
0.0000000116
  9
$TDUSRTIMER
 40
0.0000000116
  9
$USRTIMER
 70
     1
  9
$ANGBASE
 50
0.0
  9
$ANGDIR
 70
     0
  9
$PDMODE
 70
     0
  9
$PDSIZE
 40
0.0
  9
$PLINEWID
 40
0.0
  9
$COORDS
 70
     1
  9
$SPLFRAME
 70
     0
  9
$SPLINETYPE
 70
     6
  9
$SPLINESEGS
 70
     8
  9
$ATTDIA
 70
     0
  9
$ATTREQ
 70
     1
  9
$HANDLING
 70
     1
  9
$HANDSEED
  5
C8
  9
$SURFTAB1
 70
     6
  9
$SURFTAB2
 70
     6
  9
$SURFTYPE
 70
     6
  9
$SURFU
 70
     6
  9
$SURFV
 70
     6
  9
$UCSNAME
  2

  9
$UCSORG
 10
0.0
 20
0.0
 30
0.0
  9
$UCSXDIR
 10
1.0
 20
0.0
 30
0.0
  9
$UCSYDIR
 10
0.0
 20
1.0
 30
0.0
  9
$PUCSNAME
  2

  9
$PUCSORG
 10
0.0
 20
0.0
 30
0.0
  9
$PUCSXDIR
 10
1.0
 20
0.0
 30
0.0
  9
$PUCSYDIR
 10
0.0
 20
1.0
 30
0.0
  9
$USERI1
 70
     0
  9
$USERI2
 70
     0
  9
$USERI3
 70
     0
  9
$USERI4
 70
     0
  9
$USERI5
 70
     0
  9
$USERR1
 40
17.0
  9
$USERR2
 40
0.0
  9
$USERR3
 40
0.0
  9
$USERR4
 40
0.0
  9
$USERR5
 40
0.0
  9
$WORLDVIEW
 70
     1
  9
$SHADEDGE
 70
     3
  9
$SHADEDIF
 70
    70
  9
$TILEMODE
 70
     1
  9
$MAXACTVP
 70
    64
  9
$PINSBASE
 10
0.0
 20
0.0
 30
0.0
  9
$PLIMCHECK
 70
     0
  9
$PEXTMIN
 10
1.00000000000000E+20
 20
1.00000000000000E+20
 30
1.00000000000000E+20
  9
$PEXTMAX
 10
-1.00000000000000E+20
 20
-1.00000000000000E+20
 30
-1.00000000000000E+20
  9
$PLIMMIN
 10
0.0
 20
0.0
  9
$PLIMMAX
 10
12.0
 20
9.0
  9
$UNITMODE
 70
     0
  9
$VISRETAIN
 70
     1
  9
$PLINEGEN
 70
     0
  9
$PSLTSCALE
 70
     1
  9
$TREEDEPTH
 70
  3020
  9
$PICKSTYLE
 70
     1
  9
$CMLSTYLE
  2
STANDARD
  9
$CMLJUST
 70
     0
  9
$CMLSCALE
 40
1.0
  9
$PROXYGRAPHICS
 70
     1
  9
$MEASUREMENT
 70
     1
  0
ENDSEC
  0
SECTION
  2
CLASSES
  0
CLASS
  1
ACDBDICTIONARYWDFLT
  2
AcDbDictionaryWithDefault
  3
ObjectDBX Classes
 90
        0
280
     0
281
     0
  0
CLASS
  1
VISUALSTYLE
  2
AcDbVisualStyle
  3
ObjectDBX Classes
 90
     4095
280
     0
281
     0
  0
CLASS
  1
MATERIAL
  2
AcDbMaterial
  3
ObjectDBX Classes
 90
     1153
280
     0
281
     0
  0
CLASS
  1

  2
exOdDbPolyline
  3

 90
        0
280
     0
281
     1
  0
CLASS
  1

  2
exOdDbSpline
  3

 90
        0
280
     0
281
     1
  0
CLASS
  1
DICTIONARYVAR
  2
AcDbDictionaryVar
  3
ObjectDBX Classes
 90
        0
280
     0
281
     0
  0
CLASS
  1
XRECORD
  2
AcDbXrecord
  3
AutoCAD 2000
 90
        0
280
     0
281
     0
  0
CLASS
  1
LWPOLYLINE
  2
AcDbPolyline
  3
AutoCAD 2000
 90
        0
280
     0
281
     1
  0
CLASS
  1
HATCH
  2
AcDbHatch
  3
AutoCAD 2000
 90
        0
280
     0
281
     1
  0
CLASS
  1
ACDBPLACEHOLDER
  2
AcDbPlaceHolder
  3
ObjectDBX Classes
 90
        0
280
     0
281
     0
  0
CLASS
  1
LAYOUT
  2
AcDbLayout
  3
ObjectDBX Classes
 90
        0
280
     0
281
     0
  0
ENDSEC
  0
SECTION
  2
TABLES
  0
TABLE
  2
VPORT
  5
8
330
0
100
AcDbSymbolTable
 70
     1
  0
VPORT
  5
29
330
8
100
AcDbSymbolTableRecord
100
AcDbViewportTableRecord
  2
*ACTIVE
 70
     0
 10
0.0
 20
0.0
 11
1.0
 21
1.0
 12
1796.61364708552
 22
3706.79879988383
 13
0.0
 23
0.0
 14
0.5
 24
0.5
 15
0.5
 25
0.5
 16
0.0
 26
0.0
 36
1.0
 17
0.0
 27
0.0
 37
0.0
 40
858.0416713091926
 41
1.60267857142857
 42
50.0
 43
0.0
 44
0.0
 50
0.0
 51
0.0
 71
     0
 72
   100
 73
     1
 74
     3
 75
     0
 76
     0
 77
     0
 78
     0
  0
ENDTAB
  0
TABLE
  2
LTYPE
  5
5
330
0
100
AcDbSymbolTable
 70
     8
  0
LTYPE
  5
14
330
5
100
AcDbSymbolTableRecord
100
AcDbLinetypeTableRecord
  2
BYBLOCK
 70
     0
  3

 72
    65
 73
     0
 40
0.0
  0
LTYPE
  5
15
330
5
100
AcDbSymbolTableRecord
100
AcDbLinetypeTableRecord
  2
BYLAYER
 70
     0
  3

 72
    65
 73
     0
 40
0.0
  0
LTYPE
  5
16
330
5
100
AcDbSymbolTableRecord
100
AcDbLinetypeTableRecord
  2
CONTINUOUS
 70
     0
  3
Solid line
 72
    65
 73
     0
 40
0.0
  0
LTYPE
  5
3F
330
5
100
AcDbSymbolTableRecord
100
AcDbLinetypeTableRecord
  2
DASHED
 70
     0
  3
Dashed
 72
    65
 73
     2
 40
15.0
 49
7.0
 74
     0
 49
-8.0
 74
     0
  0
LTYPE
  5
40
330
5
100
AcDbSymbolTableRecord
100
AcDbLinetypeTableRecord
  2
DOTTED
 70
     0
  3
Dotted
 72
    65
 73
     2
 40
1.0
 49
0.0
 74
     0
 49
-1.0
 74
     0
  0
LTYPE
  5
41
330
5
100
AcDbSymbolTableRecord
100
AcDbLinetypeTableRecord
  2
DOT_CENTER
 70
     0
  3
Dot_Center
 72
    65
 73
     4
 40
14.0
 49
12.0
 74
     0
 49
-1.0
 74
     0
 49
0.0
 74
     0
 49
-1.0
 74
     0
  0
LTYPE
  5
42
330
5
100
AcDbSymbolTableRecord
100
AcDbLinetypeTableRecord
  2
LONG_DASHED
 70
     0
  3
Long_Dashed
 72
    65
 73
     2
 40
15.0
 49
10.0
 74
     0
 49
-5.0
 74
     0
  0
LTYPE
  5
43
330
5
100
AcDbSymbolTableRecord
100
AcDbLinetypeTableRecord
  2
DASH_CENTER
 70
     0
  3
Dash_Center
 72
    65
 73
     4
 40
14.0
 49
11.0
 74
     0
 49
-1.0
 74
     0
 49
1.0
 74
     0
 49
-1.0
 74
     0
  0
LTYPE
  5
44
330
5
100
AcDbSymbolTableRecord
100
AcDbLinetypeTableRecord
  2
PHANTOM
 70
     0
  3
Phantom
 72
    65
 73
     6
 40
13.0
 49
10.0
 74
     0
 49
-1.0
 74
     0
 49
0.0
 74
     0
 49
-1.0
 74
     0
 49
0.0
 74
     0
 49
-1.0
 74
     0
  0
LTYPE
  5
45
330
5
100
AcDbSymbolTableRecord
100
AcDbLinetypeTableRecord
  2
CENTER_DASH_DASH
 70
     0
  3
Center_Dash_Dash
 72
    65
 73
     6
 40
14.0
 49
9.0
 74
     0
 49
-1.0
 74
     0
 49
1.0
 74
     0
 49
-1.0
 74
     0
 49
1.0
 74
     0
 49
-1.0
 74
     0
  0
ENDTAB
  0
TABLE
  2
LAYER
  5
2
330
0
100
AcDbSymbolTable
 70
     2
  0
LAYER
  5
10
330
2
100
AcDbSymbolTableRecord
100
AcDbLayerTableRecord
  2
0
 70
     0
 62
     7
  6
CONTINUOUS
  0
LAYER
  5
46
330
2
100
AcDbSymbolTableRecord
100
AcDbLayerTableRecord
  2
1
 70
     0
 62
     7
  6
CONTINUOUS
  0
ENDTAB
  0
TABLE
  2
STYLE
  5
3
330
0
100
AcDbSymbolTable
 70
     1
  0
STYLE
  5
11
330
3
100
AcDbSymbolTableRecord
100
AcDbTextStyleTableRecord
  2
STANDARD
 70
     0
 40
0.0
 41
1.0
 50
0.0
 71
     0
 42
0.2
  3
txt
  4

  0
ENDTAB
  0
TABLE
  2
VIEW
  5
6
330
0
100
AcDbSymbolTable
 70
     0
  0
ENDTAB
  0
TABLE
  2
UCS
  5
7
330
0
100
AcDbSymbolTable
 70
     0
  0
ENDTAB
  0
TABLE
  2
APPID
  5
9
330
0
100
AcDbSymbolTable
 70
     1
  0
APPID
  5
12
330
9
100
AcDbSymbolTableRecord
100
AcDbRegAppTableRecord
  2
ACAD
 70
     0
  0
ENDTAB
  0
TABLE
  2
DIMSTYLE
  5
A
330
0
100
AcDbSymbolTable
 70
     1
  0
DIMSTYLE
105
27
330
A
100
AcDbSymbolTableRecord
100
AcDbDimStyleTableRecord
  2
STANDARD
 70
     0
  3

  4

  5

  6

  7

 40
1.0
 41
0.18
 42
0.0625
 43
0.38
 44
0.18
 45
0.0
 46
0.0
 47
0.0
 48
0.0
140
0.18
141
0.09
142
0.0
143
25.4
144
1.0
145
0.0
146
1.0
147
0.09
 71
     0
 72
     0
 73
     1
 74
     1
 75
     0
 76
     0
 77
     0
 78
     0
170
     0
171
     2
172
     0
173
     0
174
     0
175
     0
176
     0
177
     0
178
     0
270
     2
271
     4
272
     4
273
     2
274
     2
340
11
275
     0
280
     0
281
     0
282
     0
283
     1
284
     0
285
     0
286
     0
287
     3
288
     0
  0
ENDTAB
  0
TABLE
  2
BLOCK_RECORD
  5
1
330
0
100
AcDbSymbolTable
 70
     1
  0
BLOCK_RECORD
  5
1F
330
1
100
AcDbSymbolTableRecord
100
AcDbBlockTableRecord
  2
*MODEL_SPACE
  0
BLOCK_RECORD
  5
1B
330
1
100
AcDbSymbolTableRecord
100
AcDbBlockTableRecord
  2
*PAPER_SPACE
  0
ENDTAB
  0
ENDSEC
  0
SECTION
  2
BLOCKS
  0
BLOCK
  5
20
330
1F
100
AcDbEntity
  8
0
100
AcDbBlockBegin
  2
*MODEL_SPACE
 70
     0
 10
0.0
 20
0.0
 30
0.0
  3
*MODEL_SPACE
  1

  0
ENDBLK
  5
21
330
1F
100
AcDbEntity
  8
0
100
AcDbBlockEnd
  0
BLOCK
  5
1C
330
1B
100
AcDbEntity
 67
     1
  8
0
100
AcDbBlockBegin
  2
*PAPER_SPACE
 70
     0
 10
0.0
 20
0.0
 30
0.0
  3
*PAPER_SPACE
  1

  0
ENDBLK
  5
1D
330
1B
100
AcDbEntity
 67
     1
  8
0
100
AcDbBlockEnd
  0
ENDSEC
  0
SECTION
  2
ENTITIES
  0
POINT
  5
47
330
1F
100
AcDbEntity
  8
1
 62
     3
 60
     1
100
AcDbPoint
 10
1171.61364708552
 20
3931.79879988383
 30
0.0
  0
LINE
  5
48
330
1F
100
AcDbEntity
  8
1
  6
CONTINUOUS
 62
     7
100
AcDbLine
 10
1171.61364708552
 20
3481.79879988383
 30
0.0
 11
2421.61364708552
 21
3481.79879988383
 31
0.0
  0
LINE
  5
49
330
1F
100
AcDbEntity
  8
1
  6
CONTINUOUS
 62
     7
100
AcDbLine
 10
1171.61364708552
 20
3931.79879988383
 30
0.0
 11
1171.61364708552
 21
3481.79879988383
 31
0.0
  0
LWPOLYLINE
  5
4A
330
1F
100
AcDbEntity
  8
0
  6
CONTINUOUS
 62
     7
100
AcDbPolyline
 90
        2
 70
     0
 43
0.15
 10
1390.430297012895
 20
3913.798799883848
 10
1609.614422196595
 20
3913.798799883848
  0
LWPOLYLINE
  5
4B
330
1F
100
AcDbEntity
  8
0
  6
CONTINUOUS
 62
     7
100
AcDbPolyline
 90
        2
 70
     0
 43
0.15
 10
1698.908313048562
 20
3499.798799883848
 10
1789.903304940478
 20
3499.798799883848
  0
LWPOLYLINE
  5
4C
330
1F
100
AcDbEntity
  8
0
  6
CONTINUOUS
 62
     7
100
AcDbPolyline
 90
        2
 70
     0
 43
0.15
 10
1924.800135063937
 20
3499.79879988383
 10
1918.82931200047
 20
3499.798799883848
  0
LWPOLYLINE
  5
4D
330
1F
100
AcDbEntity
  8
0
  6
CONTINUOUS
 62
     7
100
AcDbPolyline
 90
        2
 70
     0
 43
0.15
 10
1660.27155061827
 20
3499.79879988383
 10
1658.67243228002
 20
3507.33490281131
  0
LWPOLYLINE
  5
4E
330
1F
100
AcDbEntity
  8
0
  6
CONTINUOUS
 62
     7
100
AcDbPolyline
 90
        2
 70
     0
 43
0.15
 10
1633.447630105904
 20
3499.798799883848
 10
1660.27155061827
 20
3499.79879988383
  0
LWPOLYLINE
  5
4F
330
1F
100
AcDbEntity
  8
0
  6
CONTINUOUS
 62
     7
100
AcDbPolyline
 90
        2
 70
     0
 43
0.15
 10
1658.67243228002
 20
3507.33490281131
 10
1653.565570490187
 20
3520.40592803846
  0
LWPOLYLINE
  5
50
330
1F
100
AcDbEntity
  8
0
  6
CONTINUOUS
 62
     7
100
AcDbPolyline
 90
        2
 70
     0
 43
0.15
 10
2421.61364708552
 20
3481.79879988383
 10
2421.61364708552
 20
3931.79879988383
  0
LWPOLYLINE
  5
51
330
1F
100
AcDbEntity
  8
0
  6
CONTINUOUS
 62
     7
100
AcDbPolyline
 90
        2
 70
     0
 43
0.15
 10
2421.61364708552
 20
3931.79879988383
 10
1171.61364708552
 20
3931.79879988383
  0
LWPOLYLINE
  5
52
330
1F
100
AcDbEntity
  8
0
  6
CONTINUOUS
 62
     7
100
AcDbPolyline
 90
        2
 70
     0
 43
0.15
 10
1188.280313752187
 20
3913.79879988383
 10
1279.56602652402
 20
3913.798799883848
  0
LWPOLYLINE
  5
53
330
1F
100
AcDbEntity
  8
0
  6
CONTINUOUS
 62
     7
100
AcDbPolyline
 90
        2
 70
     0
 43
0.15
 10
1188.280313752187
 20
3913.79879988383
 10
1188.280313752187
 20
3773.77530902186
  0
LWPOLYLINE
  5
54
330
1F
100
AcDbEntity
  8
0
  6
CONTINUOUS
 62
     7
100
AcDbPolyline
 90
        2
 70
     0
 43
0.15
 10
1188.28031375217
 20
3758.218075437872
 10
1188.28031375217
 20
3699.195796970249
  0
LWPOLYLINE
  5
55
330
1F
100
AcDbEntity
  8
0
  6
CONTINUOUS
 62
     7
100
AcDbPolyline
 90
        2
 70
     0
 43
0.15
 10
1188.28031375217
 20
3654.574954448729
 10
1188.280313752187
 20
3582.19460160275
  0
LWPOLYLINE
  5
56
330
1F
100
AcDbEntity
  8
0
  6
CONTINUOUS
 62
     7
100
AcDbPolyline
 90
        2
 70
     0
 43
0.15
 10
1188.280313752187
 20
3582.19460160275
 10
1241.82469728902
 20
3582.19460160275
  0
LWPOLYLINE
  5
57
330
1F
100
AcDbEntity
  8
0
  6
CONTINUOUS
 62
     7
100
AcDbPolyline
 90
        2
 70
     0
 43
0.15
 10
2404.946980418853
 20
3809.24507785271
 10
2404.946980418837
 20
3773.775309021878
  0
LWPOLYLINE
  5
58
330
1F
100
AcDbEntity
  8
0
  6
CONTINUOUS
 62
     7
100
AcDbPolyline
 90
        2
 70
     0
 43
0.15
 10
2404.946980418853
 20
3748.91799036011
 10
2404.946980418853
 20
3651.41143969349
  0
LWPOLYLINE
  5
59
330
1F
100
AcDbEntity
  8
0
  6
CONTINUOUS
 62
     7
100
AcDbPolyline
 90
        2
 70
     0
 43
0.15
 10
2226.405237367354
 20
3913.79879988383
 10
2404.946980418853
 20
3913.79879988383
  0
LWPOLYLINE
  5
5A
330
1F
100
AcDbEntity
  8
0
  6
CONTINUOUS
 62
     7
100
AcDbPolyline
 90
        2
 70
     0
 43
0.15
 10
2404.946980418853
 20
3913.79879988383
 10
2404.946980418853
 20
3834.39636847814
  0
LWPOLYLINE
  5
5B
330
1F
100
AcDbEntity
  8
0
  6
CONTINUOUS
 62
     7
100
AcDbPolyline
 90
        2
 70
     0
 43
0.15
 10
2217.747319861529
 20
3499.798799883848
 10
2370.583968834845
 20
3499.798799883848
  0
LWPOLYLINE
  5
5C
330
1F
100
AcDbEntity
  8
0
  6
CONTINUOUS
 62
     7
100
AcDbPolyline
 90
        2
 70
     0
 43
0.15
 10
1908.34987440572
 20
3913.798799883848
 10
1981.743565444853
 20
3913.798799883848
  0
LWPOLYLINE
  5
5D
330
1F
100
AcDbEntity
  8
0
  6
CONTINUOUS
 62
     7
100
AcDbPolyline
 90
        2
 70
     0
 43
0.15
 10
2010.037704552053
 20
3499.798799883848
 10
2167.512455088395
 20
3499.798799883848
  0
LWPOLYLINE
  5
5E
330
1F
100
AcDbEntity
  8
0
  6
CONTINUOUS
 62
     7
100
AcDbPolyline
 90
        2
 70
     0
 43
0.15
 10
2023.50084413802
 20
3913.79879988383
 10
2146.06391728727
 20
3913.79879988383
  0
SPLINE
  5
5F
330
1F
100
AcDbEntity
  8
0
  6
CONTINUOUS
 62
     7
100
AcDbSpline
210
0.0
220
0.0
230
1.0
 70
     8
 71
     3
 72
     9
 73
     5
 74
     3
 42
0.0000000001
 43
0.0000000001
 44
0.00000001
 40
0.0
 40
0.0
 40
0.0
 40
0.0
 40
21.77578630968694
 40
43.30462887840451
 40
43.30462887840451
 40
43.30462887840451
 40
43.30462887840451
 10
2155.661400880003
 20
3565.785418746584
 30
0.0
 10
2149.854967641189
 20
3561.340470138232
 30
0.0
 10
2138.307947802821
 20
3552.500979929669
 30
0.0
 10
2124.542080512213
 20
3547.818144071637
 30
0.0
 10
2117.698396652145
 20
3545.490078029417
 30
0.0
 11
2155.661400880003
 21
3565.785418746584
 31
0.0
 11
2137.681044796627
 21
3553.501621918235
 31
0.0
 11
2117.698396652145
 21
3545.490078029417
 31
0.0
  0
SPLINE
  5
60
330
1F
100
AcDbEntity
  8
0
  6
CONTINUOUS
 62
     7
100
AcDbSpline
210
0.0
220
0.0
230
1.0
 70
     8
 71
     3
 72
     9
 73
     5
 74
     3
 42
0.0000000001
 43
0.0000000001
 44
0.00000001
 40
0.0
 40
0.0
 40
0.0
 40
0.0
 40
18.61152873602104
 40
37.61880863581032
 40
37.61880863581032
 40
37.61880863581032
 40
37.61880863581032
 10
2155.661400880003
 20
3565.785418746584
 30
0.0
 10
2153.851182450219
 20
3559.547456663833
 30
0.0
 10
2150.192253532292
 20
3546.938889941729
 30
0.0
 10
2156.949019034109
 20
3535.665181065261
 30
0.0
 10
2160.362942488028
 20
3529.969026724004
 30
0.0
 11
2155.661400880003
 21
3565.785418746584
 31
0.0
 11
2152.780170642553
 21
3547.398262517016
 31
0.0
 11
2160.362942488028
 21
3529.969026724004
 31
0.0
  0
SPLINE
  5
61
330
1F
100
AcDbEntity
  8
0
  6
CONTINUOUS
 62
     7
100
AcDbSpline
210
0.0
220
0.0
230
1.0
 70
     8
 71
     3
 72
     9
 73
     5
 74
     3
 42
0.0000000001
 43
0.0000000001
 44
0.00000001
 40
0.0
 40
0.0
 40
0.0
 40
0.0
 40
22.68255717068253
 40
45.52277657550289
 40
45.52277657550289
 40
45.52277657550289
 40
45.52277657550289
 10
2117.698396652145
 20
3545.490078029417
 30
0.0
 10
2125.069146690006
 20
3543.695183732321
 30
0.0
 10
2139.861879477697
 20
3540.092919161862
 30
0.0
 10
2153.513494618266
 20
3533.35144028262
 30
0.0
 10
2160.362942488028
 20
3529.969026724004
 30
0.0
 11
2117.698396652145
 21
3545.490078029417
 31
0.0
 11
2139.527339988546
 21
3539.326018278127
 31
0.0
 11
2160.362942488028
 21
3529.969026724004
 31
0.0
  0
SPLINE
  5
62
330
1F
100
AcDbEntity
  8
0
  6
CONTINUOUS
 62
     7
100
AcDbSpline
210
0.0
220
0.0
230
1.0
 70
     8
 71
     3
 72
    16
 73
    12
 74
    10
 42
0.0000000001
 43
0.0000000001
 44
0.00000001
 40
0.0
 40
0.0
 40
0.0
 40
0.0
 40
27.74815171072144
 40
55.45831327173084
 40
97.22429695007463
 40
140.592681244906
 40
190.9847785733733
 40
240.8367576884891
 40
282.4561201176273
 40
322.9765740949559
 40
366.9486953498276
 40
366.9486953498276
 40
366.9486953498276
 40
366.9486953498276
 10
1698.908313048562
 20
3499.798799883848
 30
0.0
 10
1696.867322205708
 20
3508.89107994504
 30
0.0
 10
1692.788134851979
 20
3527.063191775935
 30
0.0
 10
1699.383922941841
 20
3560.025319204071
 30
0.0
 10
1726.100230165106
 20
3589.322007039908
 30
0.0
 10
1768.250412697279
 20
3607.230486909624
 30
0.0
 10
1816.547734718396
 20
3613.781470715024
 30
0.0
 10
1863.577281357432
 20
3602.060749858915
 30
0.0
 10
1901.433619024309
 20
3579.390404523751
 30
0.0
 10
1929.487227894021
 20
3544.031665454849
 30
0.0
 10
1926.404477890357
 20
3514.939246882317
 30
0.0
 10
1924.800135063937
 20
3499.79879988383
 30
0.0
 11
1698.908313048562
 21
3499.798799883848
 31
0.0
 11
1694.74841017012
 21
3527.233360777056
 31
0.0
 11
1700.297187876271
 21
3554.382285612212
 31
0.0
 11
1727.242387321925
 21
3586.293938961006
 31
0.0
 11
1766.573323881149
 21
3604.56671066424
 31
0.0
 11
1816.608030258307
 21
3610.557673100555
 31
0.0
 11
1865.091904428943
 21
3598.958803884126
 31
0.0
 11
1900.391603991836
 21
3576.911070672355
 31
0.0
 11
1923.6876237727
 21
3543.756845407715
 31
0.0
 11
1924.800135063937
 21
3499.79879988383
 31
0.0
  0
SPLINE
  5
63
330
1F
100
AcDbEntity
  8
0
  6
CONTINUOUS
 62
     7
100
AcDbSpline
210
0.0
220
0.0
230
1.0
 70
     8
 71
     3
 72
    13
 73
     9
 74
     7
 42
0.0000000001
 43
0.0000000001
 44
0.00000001
 40
0.0
 40
0.0
 40
0.0
 40
0.0
 40
31.52206327863106
 40
66.03975081561573
 40
75.16319290006723
 40
84.039729896099
 40
130.1257618068933
 40
180.375054177299
 40
180.375054177299
 40
180.375054177299
 40
180.375054177299
 10
1789.903304940478
 20
3499.798799883848
 30
0.0
 10
1790.411753702235
 20
3511.065626411072
 30
0.0
 10
1791.476970443669
 20
3534.66999550848
 30
0.0
 10
1818.186865844473
 20
3546.631582320049
 30
0.0
 10
1835.238617936651
 20
3549.78071137207
 30
0.0
 10
1856.510863627515
 20
3550.683958663422
 30
0.0
 10
1895.476787104765
 20
3546.374650125508
 30
0.0
 10
1910.824052800179
 20
3515.765028603169
 30
0.0
 10
1918.82931200047
 20
3499.798799883848
 30
0.0
 11
1789.903304940478
 21
3499.798799883848
 31
0.0
 11
1796.532720219883
 21
3530.615862144797
 31
0.0
 11
1826.373519944784
 21
3547.965139498025
 31
0.0
 11
1835.352295569843
 21
3549.583405157054
 31
0.0
 11
1844.21489741259
 21
3550.080594878243
 31
0.0
 11
1889.281928958598
 21
3540.442908178943
 31
0.0
 11
1918.82931200047
 21
3499.798799883848
 31
0.0
  0
SPLINE
  5
64
330
1F
100
AcDbEntity
  8
0
  6
CONTINUOUS
 62
     7
100
AcDbSpline
210
0.0
220
0.0
230
1.0
 70
     8
 71
     3
 72
     9
 73
     5
 74
     3
 42
0.0000000001
 43
0.0000000001
 44
0.00000001
 40
0.0
 40
0.0
 40
0.0
 40
0.0
 40
34.12593784173247
 40
68.10091780221745
 40
68.10091780221745
 40
68.10091780221745
 40
68.10091780221745
 10
2149.23841884837
 20
3728.301057398111
 30
0.0
 10
2141.338167050208
 20
3719.764504992343
 30
0.0
 10
2125.572610633306
 20
3702.729162069441
 30
0.0
 10
2103.12888223856
 20
3696.820668159673
 30
0.0
 10
2091.931893313028
 20
3693.872969822273
 30
0.0
 11
2149.23841884837
 21
3728.301057398111
 31
0.0
 11
2123.860710573715
 21
3705.485458429329
 31
0.0
 11
2091.931893313028
 21
3693.872969822273
 31
0.0
  0
SPLINE
  5
65
330
1F
100
AcDbEntity
  8
0
  6
CONTINUOUS
 62
     7
100
AcDbSpline
210
0.0
220
0.0
230
1.0
 70
     8
 71
     3
 72
     9
 73
     5
 74
     3
 42
0.0000000001
 43
0.0000000001
 44
0.00000001
 40
0.0
 40
0.0
 40
0.0
 40
0.0
 40
57.05158466990778
 40
116.0308314993275
 40
116.0308314993275
 40
116.0308314993275
 40
116.0308314993275
 10
2230.749080500837
 20
3651.411439693481
 30
0.0
 10
2212.304097079226
 20
3658.573800427782
 30
0.0
 10
2174.790910096189
 20
3673.140524144702
 30
0.0
 10
2157.849732567005
 20
3709.711689648192
 30
0.0
 10
2149.23841884837
 20
3728.301057398111
 30
0.0
 11
2230.749080500837
 21
3651.411439693481
 31
0.0
 11
2180.387666971713
 21
3678.218366796307
 31
0.0
 11
2149.23841884837
 21
3728.301057398111
 31
0.0
  0
SPLINE
  5
66
330
1F
100
AcDbEntity
  8
0
  6
CONTINUOUS
 62
     7
100
AcDbSpline
210
0.0
220
0.0
230
1.0
 70
     8
 71
     3
 72
     9
 73
     5
 74
     3
 42
0.0000000001
 43
0.0000000001
 44
0.00000001
 40
0.0
 40
0.0
 40
0.0
 40
0.0
 40
29.23430460492273
 40
57.4670263252955
 40
57.4670263252955
 40
57.4670263252955
 40
57.4670263252955
 10
2185.192543770245
 20
3620.544584148275
 30
0.0
 10
2190.5862575384
 20
3629.258788019975
 30
0.0
 10
2201.1888935612
 20
3646.38864248604
 30
0.0
 10
2221.010842630823
 20
3649.756741295302
 30
0.0
 10
2230.749080500837
 20
3651.411439693481
 30
0.0
 11
2185.192543770245
 21
3620.544584148275
 31
0.0
 11
2203.759554368369
 21
3643.125786135383
 31
0.0
 11
2230.749080500837
 21
3651.411439693481
 31
0.0
  0
SPLINE
  5
67
330
1F
100
AcDbEntity
  8
0
  6
CONTINUOUS
 62
     7
100
AcDbSpline
210
0.0
220
0.0
230
1.0
 70
     8
 71
     3
 72
     9
 73
     5
 74
     3
 42
0.0000000001
 43
0.0000000001
 44
0.00000001
 40
0.0
 40
0.0
 40
0.0
 40
0.0
 40
62.7814185104482
 40
125.7248550295396
 40
125.7248550295396
 40
125.7248550295396
 40
125.7248550295396
 10
2091.931893313028
 20
3693.872969822273
 30
0.0
 10
2113.877187444965
 20
3689.842416657214
 30
0.0
 10
2157.824409230966
 20
3681.770908806823
 30
0.0
 10
2176.061998171516
 20
3640.970884973972
 30
0.0
 10
2185.192543770245
 20
3620.544584148275
 30
0.0
 11
2091.931893313028
 21
3693.872969822273
 31
0.0
 11
2151.356922456258
 21
3673.62025589277
 31
0.0
 11
2185.192543770245
 21
3620.544584148275
 31
0.0
  0
SPLINE
  5
68
330
1F
100
AcDbEntity
  8
0
  6
CONTINUOUS
 62
     7
100
AcDbSpline
210
0.0
220
0.0
230
1.0
 70
    11
 71
     3
 72
    79
 73
    75
 74
    73
 42
0.0000000001
 43
0.0000000001
 44
0.00000001
 40
0.0
 40
0.0
 40
0.0
 40
0.0
 40
5.457965396758133
 40
10.88849265091979
 40
16.62125226114537
 40
22.3145079696582
 40
28.38659851735029
 40
34.41660060664342
 40
40.84605810679224
 40
47.23704003899029
 40
54.000246382832
 40
60.73158064230186
 40
67.77103294226647
 40
74.78630918750783
 40
82.01934088726809
 40
89.23614947925924
 40
96.5636846723492
 40
103.8829813888621
 40
111.198084175441
 40
118.5130346721712
 40
125.7093362186709
 40
132.9138520372626
 40
139.8940669236802
 40
146.8912900405715
 40
153.5760729742854
 40
160.2870147738759
 40
166.6243506890108
 40
172.9967300564718
 40
178.9717043027231
 40
184.988623518648
 40
190.6323214539535
 40
196.3195782833241
 40
201.7134144065605
 40
207.1430743047941
 40
212.4122658051324
 40
217.6990467862286
 40
222.9917794001569
 40
228.2782001339371
 40
233.736165530696
 40
239.1666927848572
 40
244.8994523950795
 40
250.5927081035907
 40
256.6647986512849
 40
262.6948007405796
 40
269.1242582407286
 40
275.5152401729271
 40
282.2784465167692
 40
289.0097807762389
 40
296.0492330762033
 40
303.0645093214431
 40
310.2975410212013
 40
317.5143496131925
 40
324.8418848062824
 40
332.1611815227975
 40
339.4762843093787
 40
346.7912348061089
 40
353.9875363526082
 40
361.1920521711987
 40
368.1722670576162
 40
375.1694901745093
 40
381.8542731082262
 40
388.5652149078175
 40
394.9025508229526
 40
401.2749301904121
 40
407.2499044366621
 40
413.2668236525853
 40
418.9105215878927
 40
424.5977784172636
 40
429.9916145405004
 40
435.4212744387343
 40
440.6904659390756
 40
445.9772469201731
 40
451.2699795341001
 40
456.5564002678781
 40
456.5564002678781
 40
456.5564002678781
 40
456.5564002678781
 10
2352.331713832329
 20
3738.838268440113
 30
0.0
 10
2351.93384201571
 20
3740.615668053994
 30
0.0
 10
2351.140098553387
 20
3744.16153198435
 30
0.0
 10
2349.152402050973
 20
3749.35195149219
 30
0.0
 10
2346.620248130218
 20
3754.377069819625
 30
0.0
 10
2343.45672739258
 20
3759.289629822462
 30
0.0
 10
2339.772016284432
 20
3763.949642352586
 30
0.0
 10
2335.505471465325
 20
3768.427507815179
 30
0.0
 10
2330.789307779033
 20
3772.591342592207
 30
0.0
 10
2325.552879608078
 20
3776.500147905306
 30
0.0
 10
2319.945713528583
 20
3780.047547261781
 30
0.0
 10
2313.901596449844
 20
3783.271853505446
 30
0.0
 10
2307.569228914671
 20
3786.097992471871
 30
0.0
 10
2300.902476332144
 20
3788.543293945589
 30
0.0
 10
2294.033005376725
 20
3790.562872641191
 30
0.0
 10
2286.946379469278
 20
3792.15812329178
 30
0.0
 10
2279.745014428894
 20
3793.308829635724
 30
0.0
 10
2272.453119665633
 20
3794.008537443005
 30
0.0
 10
2265.136018174248
 20
3794.253537154104
 30
0.0
 10
2257.858859474972
 20
3794.039092993165
 30
0.0
 10
2250.646505391297
 20
3793.368482993167
 30
0.0
 10
2243.602755406875
 20
3792.248571196718
 30
0.0
 10
2236.713228870155
 20
3790.679825020176
 30
0.0
 10
2230.113498026248
 20
3788.689819282952
 30
0.0
 10
2223.755942857202
 20
3786.267282224683
 30
0.0
 10
2217.79639902199
 20
3783.467555645566
 30
0.0
 10
2212.165006195081
 20
3780.26110721705
 30
0.0
 10
2207.021836018047
 20
3776.734276563517
 30
0.0
 10
2202.290664662972
 20
3772.837454441129
 30
0.0
 10
2198.11607490794
 20
3768.684940462531
 30
0.0
 10
2194.434762823426
 20
3764.213194214188
 30
0.0
 10
2191.355106122016
 20
3759.55238462744
 30
0.0
 10
2188.844388968409
 20
3754.642308064871
 30
0.0
 10
2186.959437275812
 20
3749.606422664947
 30
0.0
 10
2185.703439810911
 20
3744.41503951351
 30
0.0
 10
2185.082894130083
 20
3739.155332086882
 30
0.0
 10
2185.118774598785
 20
3733.853567351516
 30
0.0
 10
2185.792981838153
 20
3728.537961478252
 30
0.0
 10
2187.108566878812
 20
3723.296231873796
 30
0.0
 10
2189.059057345527
 20
3718.098814163839
 30
0.0
 10
2191.601674346736
 20
3713.075663870636
 30
0.0
 10
2194.762320688342
 20
3708.162563213468
 30
0.0
 10
2198.447847570612
 20
3703.502704124903
 30
0.0
 10
2202.714167566106
 20
3699.024796374516
 30
0.0
 10
2207.430395058506
 20
3694.860973598981
 30
0.0
 10
2212.666805659462
 20
3690.952164981084
 30
0.0
 10
2218.273976693165
 20
3687.404766556462
 30
0.0
 10
2224.318092412831
 20
3684.180460057166
 30
0.0
 10
2230.650460327216
 20
3681.354321162069
 30
0.0
 10
2237.317212806299
 20
3678.909019668893
 30
0.0
 10
2244.186683790213
 20
3676.889440978649
 30
0.0
 10
2251.273309689939
 20
3675.294190326608
 30
0.0
 10
2258.47467473242
 20
3674.143483983058
 30
0.0
 10
2265.76656949512
 20
3673.443776175675
 30
0.0
 10
2273.083670986658
 20
3673.198776464601
 30
0.0
 10
2280.360829685886
 20
3673.41322062553
 30
0.0
 10
2287.573183769609
 20
3674.083830625533
 30
0.0
 10
2294.616933753884
 20
3675.203742421953
 30
0.0
 10
2301.506460291127
 20
3676.772488598593
 30
0.0
 10
2308.106191133129
 20
3678.762494335459
 30
0.0
 10
2314.463746308996
 20
3681.18503139502
 30
0.0
 10
2320.423290119368
 20
3683.984757969468
 30
0.0
 10
2326.054683034286
 20
3687.191206414536
 30
0.0
 10
2331.197852891928
 20
3690.718037007992
 30
0.0
 10
2335.929025372041
 20
3694.614859341992
 30
0.0
 10
2340.103611044402
 20
3698.767372552665
 30
0.0
 10
2343.784937523367
 20
3703.239121508509
 30
0.0
 10
2346.864541763693
 20
3707.899921227681
 30
0.0
 10
2349.3754458045
 20
3712.810032942463
 30
0.0
 10
2351.259710317842
 20
3717.845789088647
 30
0.0
 10
2352.518206694162
 20
3723.037642268315
 30
0.0
 10
2353.129452174331
 20
3728.295600390494
 30
0.0
 10
2353.128337898739
 20
3733.603904410187
 30
0.0
 10
2352.597149546163
 20
3737.094174567819
 30
0.0
 10
2352.331713832329
 20
3738.838268440113
 30
0.0
 11
2352.331713832329
 21
3738.838268440113
 31
0.0
 11
2351.010360582177
 21
3744.133871508746
 31
0.0
 11
2349.107627889134
 21
3749.220150557031
 31
0.0
 11
2346.52637335311
 21
3754.338906047273
 31
0.0
 11
2343.452849780934
 21
3759.131255514267
 31
0.0
 11
2339.692708414696
 21
3763.89902443959
 31
0.0
 11
2335.539197079092
 21
3768.27043940295
 31
0.0
 11
2330.724224580385
 21
3772.531186236889
 31
0.0
 11
2325.607122116457
 21
3776.360012745278
 31
0.0
 11
2319.894781600385
 21
3779.980803526008
 31
0.0
 11
2313.958405964891
 21
3783.154177948767
 31
0.0
 11
2307.53179537159
 21
3786.026905740528
 31
0.0
 11
2300.94698897012
 21
3788.446497741716
 31
0.0
 11
2294.008324730054
 21
3790.488968337184
 31
0.0
 11
2286.968216453445
 21
3792.076167665267
 31
0.0
 11
2279.732593966473
 21
3793.233120227818
 31
0.0
 11
2272.446826344183
 21
3793.932902035492
 31
0.0
 11
2265.135789901016
 21
3794.176776808481
 31
0.0
 11
2257.824043732623
 21
3793.960284918101
 31
0.0
 11
2250.658892764182
 21
3793.291429516982
 31
0.0
 11
2243.544174468928
 21
3792.157484298064
 31
0.0
 11
2236.739132276416
 21
3790.603521422477
 31
0.0
 11
2230.041105154723
 21
3788.579277359963
 31
0.0
 11
2223.796604445302
 21
3786.193374226785
 31
0.0
 11
2217.725119718233
 21
3783.334386110955
 31
0.0
 11
2212.221644036806
 21
3780.192160478509
 31
0.0
 11
2206.970433144754
 21
3776.582173917587
 31
0.0
 11
2202.363736265685
 21
3772.777090330102
 31
0.0
 11
2198.103821143686
 21
3768.527803330577
 31
0.0
 11
2194.522905832533
 21
3764.16565111873
 31
0.0
 11
2191.394691233962
 21
3759.416002324502
 31
0.0
 11
2188.943740534247
 21
3754.611180913472
 31
0.0
 11
2187.046896932909
 21
3749.523628362142
 31
0.0
 11
2185.808494143159
 21
3744.402033142137
 31
0.0
 11
2185.192543770272
 21
3739.151256220554
 31
0.0
 11
2185.224121336262
 21
3733.858617806694
 31
0.0
 11
2185.887975328545
 21
3728.614045178589
 31
0.0
 11
2187.209328578698
 21
3723.318442109955
 31
0.0
 11
2189.11206127174
 21
3718.232163061671
 31
0.0
 11
2191.693315807765
 21
3713.113407571432
 31
0.0
 11
2194.766839379939
 21
3708.32105810444
 31
0.0
 11
2198.526980746177
 21
3703.553289179113
 31
0.0
 11
2202.680492081783
 21
3699.181874215752
 31
0.0
 11
2207.495464580488
 21
3694.921127381812
 31
0.0
 11
2212.612567044416
 21
3691.092300873423
 31
0.0
 11
2218.324907560488
 21
3687.471510092691
 31
0.0
 11
2224.261283195983
 21
3684.298135669934
 31
0.0
 11
2230.687893789283
 21
3681.425407878172
 31
0.0
 11
2237.272700190751
 21
3679.005815876984
 31
0.0
 11
2244.211364430816
 21
3676.963345281515
 31
0.0
 11
2251.251472707424
 21
3675.376145953432
 31
0.0
 11
2258.487095194396
 21
3674.219193390881
 31
0.0
 11
2265.772862816688
 21
3673.519411583208
 31
0.0
 11
2273.083899259857
 21
3673.275536810218
 31
0.0
 11
2280.395645428251
 21
3673.492028700596
 31
0.0
 11
2287.560796396691
 21
3674.160884101712
 31
0.0
 11
2294.675514691945
 21
3675.294829320629
 31
0.0
 11
2301.480556884457
 21
3676.848792196215
 31
0.0
 11
2308.178584006151
 21
3678.87303625873
 31
0.0
 11
2314.423084715573
 21
3681.258939391916
 31
0.0
 11
2320.494569442641
 21
3684.11792750775
 31
0.0
 11
2325.998045124069
 21
3687.260153140195
 31
0.0
 11
2331.24925601612
 21
3690.870139701115
 31
0.0
 11
2335.855952895188
 21
3694.675223288599
 31
0.0
 11
2340.115868017186
 21
3698.924510288122
 31
0.0
 11
2343.696783328341
 21
3703.28666249997
 31
0.0
 11
2346.824997926912
 21
3708.036311294198
 31
0.0
 11
2349.275948626627
 21
3712.841132705229
 31
0.0
 11
2351.172792227965
 21
3717.92868525656
 31
0.0
 11
2352.411195017716
 21
3723.050280476567
 31
0.0
 11
2353.027145390603
 21
3728.301057398151
 31
0.0
 11
2352.995567824613
 21
3733.59369581201
 31
0.0
 11
2352.331713832329
 21
3738.838268440113
 31
0.0
  0
SPLINE
  5
69
330
1F
100
AcDbEntity
  8
0
  6
CONTINUOUS
 62
     7
100
AcDbSpline
210
0.0
220
0.0
230
1.0
 70
    11
 71
     3
 72
    25
 73
    21
 74
    19
 42
0.0000000001
 43
0.0000000001
 44
0.00000001
 40
0.0
 40
0.0
 40
0.0
 40
0.0
 40
25.18424451316518
 40
49.99748383050473
 40
73.39284397314115
 40
97.95433678191672
 40
127.0236814036979
 40
154.2686243769296
 40
171.0809162633611
 40
188.3057278848046
 40
210.1677920134818
 40
231.5017447527975
 40
273.3869497623643
 40
317.299473751185
 40
351.2935735897304
 40
383.0606548582746
 40
406.7551719212879
 40
431.0221258622258
 40
462.7158586997965
 40
494.4497916081523
 40
494.4497916081523
 40
494.4497916081523
 40
494.4497916081523
 10
1466.096255098137
 20
3809.245077852665
 30
0.0
 10
1457.673107231806
 20
3809.065117525286
 30
0.0
 10
1440.950898271808
 20
3808.707847981085
 30
0.0
 10
1417.20260856378
 20
3801.871401850859
 30
0.0
 10
1395.41666455719
 20
3790.809644958635
 30
0.0
 10
1376.126286700764
 20
3773.384485529187
 30
0.0
 10
1361.288389828232
 20
3750.566292861461
 30
0.0
 10
1356.663795498039
 20
3724.945533440943
 30
0.0
 10
1365.802429315919
 20
3705.941734141878
 30
0.0
 10
1378.611051088021
 20
3692.198849880938
 30
0.0
 10
1396.118160271073
 20
3681.595266744155
 30
0.0
 10
1423.53636946331
 20
3673.721508613434
 30
0.0
 10
1460.133597857359
 20
3673.124582332245
 30
0.0
 10
1498.095514406869
 20
3688.133717084324
 30
0.0
 10
1527.46162904892
 20
3710.443715141412
 30
0.0
 10
1542.477584465111
 20
3738.701734749382
 30
0.0
 10
1537.369785424889
 20
3765.926605708116
 30
0.0
 10
1523.731826477672
 20
3789.224250571968
 30
0.0
 10
1497.941995422902
 20
3806.042656066434
 30
0.0
 10
1476.71598617847
 20
3808.177152980179
 30
0.0
 10
1466.096255098137
 20
3809.245077852665
 30
0.0
 11
1466.096255098137
 21
3809.245077852665
 31
0.0
 11
1440.964872050277
 21
3807.614201462311
 31
0.0
 11
1417.052850156565
 21
3800.987584348412
 31
0.0
 11
1396.324360304474
 21
3790.139884838589
 31
0.0
 11
1378.008586028326
 21
3773.775309021883
 31
0.0
 11
1362.757707403783
 21
3749.027834445285
 31
0.0
 11
1359.582003347678
 21
3721.968606419292
 31
0.0
 11
1366.405368592187
 21
3706.603228284844
 31
0.0
 11
1378.008586028325
 21
3693.872969822271
 31
0.0
 11
1396.630854233468
 21
3682.420416619508
 31
0.0
 11
1417.052850156562
 21
3676.249547798953
 31
0.0
 11
1458.935767420235
 21
3675.811780534565
 31
0.0
 11
1500.022359604743
 21
3691.310222576676
 31
0.0
 11
1526.302427869516
 21
3712.873080361113
 31
0.0
 11
1539.612682001921
 21
3741.717223393158
 31
0.0
 11
1536.15220472187
 21
3765.157684904052
 31
0.0
 11
1523.710352165412
 21
3785.992400129727
 31
0.0
 11
1497.311440455617
 21
3803.530648665934
 31
0.0
 11
1466.096255098137
 21
3809.245077852665
 31
0.0
  0
SPLINE
  5
6A
330
1F
100
AcDbEntity
  8
0
  6
CONTINUOUS
 62
     7
100
AcDbSpline
210
0.0
220
0.0
230
1.0
 70
     8
 71
     3
 72
     9
 73
     5
 74
     3
 42
0.0000000001
 43
0.0000000001
 44
0.00000001
 40
0.0
 40
0.0
 40
0.0
 40
0.0
 40
43.73130874033781
 40
87.04137156079412
 40
87.04137156079412
 40
87.04137156079412
 40
87.04137156079412
 10
1299.271453652237
 20
3499.798799883848
 30
0.0
 10
1311.123471241041
 20
3508.641289882275
 30
0.0
 10
1334.713340751182
 20
3526.241093767535
 30
0.0
 10
1363.623475487113
 20
3531.732630535292
 30
0.0
 10
1378.008586028328
 20
3534.465110482787
 30
0.0
 11
1299.271453652237
 21
3499.798799883848
 31
0.0
 11
1336.170477870639
 21
3523.269832581037
 31
0.0
 11
1378.008586028328
 21
3534.465110482787
 31
0.0
  0
SPLINE
  5
6B
330
1F
100
AcDbEntity
  8
0
  6
CONTINUOUS
 62
     7
100
AcDbSpline
210
0.0
220
0.0
230
1.0
 70
     8
 71
     3
 72
     9
 73
     5
 74
     3
 42
0.0000000001
 43
0.0000000001
 44
0.00000001
 40
0.0
 40
0.0
 40
0.0
 40
0.0
 40
30.38982670330265
 40
60.09272272379504
 40
60.09272272379504
 40
60.09272272379504
 40
60.09272272379504
 10
1279.56602652402
 20
3554.382285612212
 30
0.0
 10
1286.589072559024
 20
3546.504410323851
 30
0.0
 10
1300.47641591831
 20
3530.926730991291
 30
0.0
 10
1299.670035113095
 20
3510.095401365602
 30
0.0
 10
1299.271453652237
 20
3499.798799883848
 30
0.0
 11
1279.56602652402
 21
3554.382285612212
 31
0.0
 11
1296.877270276737
 21
3529.405047838776
 31
0.0
 11
1299.271453652237
 21
3499.798799883848
 31
0.0
  0
SPLINE
  5
6C
330
1F
100
AcDbEntity
  8
0
  6
CONTINUOUS
 62
     7
100
AcDbSpline
210
0.0
220
0.0
230
1.0
 70
     8
 71
     3
 72
     9
 73
     5
 74
     3
 42
0.0000000001
 43
0.0000000001
 44
0.00000001
 40
0.0
 40
0.0
 40
0.0
 40
0.0
 40
51.49591290281667
 40
102.4152538331298
 40
102.4152538331298
 40
102.4152538331298
 40
102.4152538331298
 10
1378.008586028328
 20
3534.465110482787
 30
0.0
 10
1362.500400266102
 20
3542.73126279003
 30
0.0
 10
1331.657665536316
 20
3559.171015753868
 30
0.0
 10
1296.864614168759
 20
3555.972526764788
 30
0.0
 10
1279.56602652402
 20
3554.382285612212
 30
0.0
 11
1378.008586028328
 21
3534.465110482787
 31
0.0
 11
1330.485298640114
 21
3554.298572145133
 31
0.0
 11
1279.56602652402
 21
3554.382285612212
 31
0.0
  0
SPLINE
  5
6D
330
1F
100
AcDbEntity
  8
0
  6
CONTINUOUS
 62
     7
100
AcDbSpline
210
0.0
220
0.0
230
1.0
 70
     8
 71
     3
 72
     9
 73
     5
 74
     3
 42
0.0000000001
 43
0.0000000001
 44
0.00000001
 40
0.0
 40
0.0
 40
0.0
 40
0.0
 40
35.49964054712846
 40
70.60416820352373
 40
70.60416820352373
 40
70.60416820352373
 40
70.60416820352373
 10
1815.152651411062
 20
3858.257849327933
 30
0.0
 10
1819.500812595691
 20
3869.533953678219
 30
0.0
 10
1828.148739699291
 20
3891.960658736576
 30
0.0
 10
1847.245203142139
 20
3906.5466280201
 30
0.0
 10
1856.740001340687
 20
3913.798799883848
 30
0.0
 11
1815.152651411062
 21
3858.257849327933
 31
0.0
 11
1830.838586744306
 21
3890.103978004691
 31
0.0
 11
1856.740001340687
 21
3913.798799883848
 31
0.0
  0
SPLINE
  5
6E
330
1F
100
AcDbEntity
  8
0
  6
CONTINUOUS
 62
     7
100
AcDbSpline
210
0.0
220
0.0
230
1.0
 70
     8
 71
     3
 72
     9
 73
     5
 74
     3
 42
0.0000000001
 43
0.0000000001
 44
0.00000001
 40
0.0
 40
0.0
 40
0.0
 40
0.0
 40
32.80985406008988
 40
66.35416828036301
 40
66.35416828036301
 40
66.35416828036301
 40
66.35416828036301
 10
1766.573323881145
 20
3902.17754185979
 30
0.0
 10
1776.3535287824
 20
3896.907148738389
 30
0.0
 10
1796.132871922598
 20
3886.24838288589
 30
0.0
 10
1808.766113361725
 20
3867.656623256809
 30
0.0
 10
1815.152651411062
 20
3858.257849327933
 30
0.0
 11
1766.573323881145
 21
3902.17754185979
 31
0.0
 11
1794.166743617107
 21
3884.426775377201
 31
0.0
 11
1815.152651411062
 21
3858.257849327933
 31
0.0
  0
SPLINE
  5
6F
330
1F
100
AcDbEntity
  8
0
  6
CONTINUOUS
 62
     7
100
AcDbSpline
210
0.0
220
0.0
230
1.0
 70
     8
 71
     3
 72
     9
 73
     5
 74
     3
 42
0.0000000001
 43
0.0000000001
 44
0.00000001
 40
0.0
 40
0.0
 40
0.0
 40
0.0
 40
45.94879917013493
 40
91.76329934812364
 40
91.76329934812364
 40
91.76329934812364
 40
91.76329934812364
 10
1856.740001340687
 20
3913.798799883848
 30
0.0
 10
1842.088398958115
 20
3908.764874025074
 30
0.0
 10
1812.828017846011
 20
3898.711735448709
 30
0.0
 10
1781.976504424704
 20
3901.023400792087
 30
0.0
 10
1766.573323881145
 20
3902.17754185979
 30
0.0
 11
1856.740001340687
 21
3913.798799883848
 31
0.0
 11
1812.386245923066
 21
3901.797278083207
 31
0.0
 11
1766.573323881145
 21
3902.17754185979
 31
0.0
  0
SPLINE
  5
70
330
1F
100
AcDbEntity
  8
0
  6
CONTINUOUS
 62
     7
100
AcDbSpline
210
0.0
220
0.0
230
1.0
 70
     8
 71
     3
 72
     9
 73
     5
 74
     3
 42
0.0000000001
 43
0.0000000001
 44
0.00000001
 40
0.0
 40
0.0
 40
0.0
 40
0.0
 40
32.23287466430785
 40
64.48630990725978
 40
64.48630990725978
 40
64.48630990725978
 40
64.48630990725978
 10
1803.472221389995
 20
3773.775309021878
 30
0.0
 10
1795.205102699207
 20
3766.912578236348
 30
0.0
 10
1778.665591920649
 20
3753.182739093711
 30
0.0
 10
1762.299685912438
 20
3739.246418634514
 30
0.0
 10
1754.114123885595
 20
3732.276036702254
 30
0.0
 11
1803.472221389995
 21
3773.775309021878
 31
0.0
 11
1778.714238838876
 21
3753.135529247775
 31
0.0
 11
1754.114123885595
 21
3732.276036702254
 31
0.0
  0
SPLINE
  5
71
330
1F
100
AcDbEntity
  8
0
  6
CONTINUOUS
 62
     7
100
AcDbSpline
210
0.0
220
0.0
230
1.0
 70
     8
 71
     3
 72
     9
 73
     5
 74
     3
 42
0.0000000001
 43
0.0000000001
 44
0.00000001
 40
0.0
 40
0.0
 40
0.0
 40
0.0
 40
32.18398462545861
 40
63.89492812192067
 40
63.89492812192067
 40
63.89492812192067
 40
63.89492812192067
 10
1803.472221389995
 20
3773.775309021878
 30
0.0
 10
1807.585248838991
 20
3763.705838058228
 30
0.0
 10
1815.750850341586
 20
3743.714897503923
 30
0.0
 10
1831.715549838594
 20
3729.181504499391
 30
0.0
 10
1839.638802881803
 20
3721.968606419294
 30
0.0
 11
1803.472221389995
 21
3773.775309021878
 31
0.0
 11
1817.790055111612
 21
3744.951560065646
 31
0.0
 11
1839.638802881803
 21
3721.968606419294
 31
0.0
  0
SPLINE
  5
72
330
1F
100
AcDbEntity
  8
0
  6
CONTINUOUS
 62
     7
100
AcDbSpline
210
0.0
220
0.0
230
1.0
 70
     8
 71
     3
 72
     9
 73
     5
 74
     3
 42
0.0000000001
 43
0.0000000001
 44
0.00000001
 40
0.0
 40
0.0
 40
0.0
 40
0.0
 40
43.38764324067976
 40
87.07853102981585
 40
87.07853102981585
 40
87.07853102981585
 40
87.07853102981585
 10
1754.114123885595
 20
3732.276036702254
 30
0.0
 10
1768.696779918062
 20
3733.715680262921
 30
0.0
 10
1797.964012958958
 20
3736.605029328829
 30
0.0
 10
1825.714992662262
 20
3726.858727647562
 30
0.0
 10
1839.638802881803
 20
3721.968606419294
 30
0.0
 11
1754.114123885595
 21
3732.276036702254
 31
0.0
 11
1797.485664171677
 21
3733.458017748329
 31
0.0
 11
1839.638802881803
 21
3721.968606419294
 31
0.0
  0
SPLINE
  5
73
330
1F
100
AcDbEntity
  8
0
  6
CONTINUOUS
 62
     7
100
AcDbSpline
210
0.0
220
0.0
230
1.0
 70
     8
 71
     3
 72
    15
 73
    11
 74
     9
 42
0.0000000001
 43
0.0000000001
 44
0.00000001
 40
0.0
 40
0.0
 40
0.0
 40
0.0
 40
45.52989522802243
 40
92.1811672845364
 40
132.1406391948593
 40
171.9935789183951
 40
206.8886509856006
 40
241.2614041961412
 40
378.8657834241333
 40
526.1338502886358
 40
526.1338502886358
 40
526.1338502886358
 40
526.1338502886358
 10
1633.447630105904
 20
3499.798799883848
 30
0.0
 10
1624.722223974121
 20
3512.513838021719
 30
0.0
 10
1607.05650965101
 20
3538.257078847253
 30
0.0
 10
1605.831999234706
 20
3585.003957851108
 30
0.0
 10
1624.008405114852
 20
3624.035659730335
 30
0.0
 10
1651.231330253145
 20
3651.760335420316
 30
0.0
 10
1683.073372417504
 20
3670.1889598901
 30
0.0
 10
1748.641480013043
 20
3690.819048049613
 30
0.0
 10
1869.91235760514
 20
3684.10112420925
 30
0.0
 10
1922.449252595459
 20
3598.588838858922
 30
0.0
 10
1949.608800914062
 20
3554.382285612212
 30
0.0
 11
1633.447630105904
 21
3499.798799883848
 31
0.0
 11
1611.372652682235
 21
3539.619230961615
 31
0.0
 11
1609.614422196595
 21
3586.237358444926
 31
0.0
 11
1625.896245981625
 21
3622.729297412116
 31
0.0
 11
1653.565570490174
 21
3651.411439693479
 31
0.0
 11
1683.667801992052
 21
3669.061417404026
 31
0.0
 11
1716.354480628948
 21
3679.694723708326
 31
0.0
 11
1853.250555989837
 21
3665.750917430739
 31
0.0
 11
1949.608800914062
 21
3554.382285612212
 31
0.0
  0
SPLINE
  5
74
330
1F
100
AcDbEntity
  8
0
  6
CONTINUOUS
 62
     7
100
AcDbSpline
210
0.0
220
0.0
230
1.0
 70
     8
 71
     3
 72
    13
 73
     9
 74
     7
 42
0.0000000001
 43
0.0000000001
 44
0.00000001
 40
0.0
 40
0.0
 40
0.0
 40
0.0
 40
45.99225303367871
 40
91.93591771803311
 40
125.9409507793658
 40
159.6800786154858
 40
274.6363884633148
 40
397.3371179094086
 40
397.3371179094086
 40
397.3371179094086
 40
397.3371179094086
 10
1653.565570490187
 20
3520.40592803846
 30
0.0
 10
1653.449924677128
 20
3536.07401923459
 30
0.0
 10
1653.218755224611
 20
3567.393649128591
 30
0.0
 10
1678.937784936074
 20
3603.598452938107
 30
0.0
 10
1710.134852289199
 20
3625.6716994554
 30
0.0
 10
1767.092838626776
 20
3647.069217783696
 30
0.0
 10
1868.23590268488
 20
3650.85551999957
 30
0.0
 10
1921.90157538435
 20
3587.231129894774
 30
0.0
 10
1949.608800914062
 20
3554.382285612212
 30
0.0
 11
1653.565570490187
 21
3520.40592803846
 31
0.0
 11
1657.975122138643
 21
3566.186308043147
 31
0.0
 11
1683.229132102829
 21
3604.56671066424
 31
0.0
 11
1710.84529072061
 21
3624.408335010545
 31
0.0
 11
1742.239261568521
 21
3636.767434554708
 31
0.0
 11
1857.183264729333
 21
3635.085378908373
 31
0.0
 11
1949.608800914062
 21
3554.382285612212
 31
0.0
  0
SPLINE
  5
75
330
1F
100
AcDbEntity
  8
0
  6
CONTINUOUS
 62
     7
100
AcDbSpline
210
0.0
220
0.0
230
1.0
 70
     8
 71
     3
 72
     9
 73
     5
 74
     3
 42
0.0000000001
 43
0.0000000001
 44
0.00000001
 40
0.0
 40
0.0
 40
0.0
 40
0.0
 40
63.73654763006815
 40
126.4476026448726
 40
126.4476026448726
 40
126.4476026448726
 40
126.4476026448726
 10
1555.13622329302
 20
3612.118144792847
 30
0.0
 10
1540.377505949745
 20
3596.181250431401
 30
0.0
 10
1511.097532440637
 20
3564.563879228529
 30
0.0
 10
1469.476533543646
 20
3553.468056960517
 30
0.0
 10
1448.834807666637
 20
3547.965139498031
 30
0.0
 11
1555.13622329302
 21
3612.118144792847
 31
0.0
 11
1507.724569008657
 21
3569.521401468739
 31
0.0
 11
1448.834807666637
 21
3547.965139498031
 31
0.0
  0
SPLINE
  5
76
330
1F
100
AcDbEntity
  8
0
  6
CONTINUOUS
 62
     7
100
AcDbSpline
210
0.0
220
0.0
230
1.0
 70
     8
 71
     3
 72
     9
 73
     5
 74
     3
 42
0.0000000001
 43
0.0000000001
 44
0.00000001
 40
0.0
 40
0.0
 40
0.0
 40
0.0
 40
55.84032253698491
 40
113.0174371086912
 40
113.0174371086912
 40
113.0174371086912
 40
113.0174371086912
 10
1555.13622329302
 20
3612.118144792847
 30
0.0
 10
1549.254228861561
 20
3593.177118846986
 30
0.0
 10
1537.349427715564
 20
3554.841627371403
 30
0.0
 10
1562.282692810805
 20
3523.294858087668
 30
0.0
 10
1574.896783091637
 20
3507.33490281131
 30
0.0
 11
1555.13622329302
 21
3612.118144792847
 31
0.0
 11
1546.483181152157
 21
3556.952335791773
 31
0.0
 11
1574.896783091637
 21
3507.33490281131
 31
0.0
  0
SPLINE
  5
77
330
1F
100
AcDbEntity
  8
0
  6
CONTINUOUS
 62
     7
100
AcDbSpline
210
0.0
220
0.0
230
1.0
 70
     8
 71
     3
 72
     9
 73
     5
 74
     3
 42
0.0000000001
 43
0.0000000001
 44
0.00000001
 40
0.0
 40
0.0
 40
0.0
 40
0.0
 40
67.18565655251967
 40
135.2012928945801
 40
135.2012928945801
 40
135.2012928945801
 40
135.2012928945801
 10
1448.834807666637
 20
3547.965139498031
 30
0.0
 10
1471.781473654944
 20
3547.670708677329
 30
0.0
 10
1517.958277878237
 20
3547.078209776975
 30
0.0
 10
1555.839765160097
 20
3520.636778416662
 30
0.0
 10
1574.896783091637
 20
3507.33490281131
 30
0.0
 11
1448.834807666637
 21
3547.965139498031
 31
0.0
 11
1515.626360075806
 21
3540.698711684696
 31
0.0
 11
1574.896783091637
 21
3507.33490281131
 31
0.0
  0
SPLINE
  5
78
330
1F
100
AcDbEntity
  8
0
  6
CONTINUOUS
 62
     7
100
AcDbSpline
210
0.0
220
0.0
230
1.0
 70
     8
 71
     3
 72
     9
 73
     5
 74
     3
 42
0.0000000001
 43
0.0000000001
 44
0.00000001
 40
0.0
 40
0.0
 40
0.0
 40
0.0
 40
89.05852561488311
 40
203.1055302171949
 40
203.1055302171949
 40
203.1055302171949
 40
203.1055302171949
 10
1279.56602652402
 20
3913.798799883848
 30
0.0
 10
1289.610432860695
 20
3880.796787122629
 30
0.0
 10
1312.51755444891
 20
3805.532894600005
 30
0.0
 10
1232.955615400276
 20
3785.195231964144
 30
0.0
 10
1188.280313752187
 20
3773.77530902186
 30
0.0
 11
1279.56602652402
 21
3913.798799883848
 31
0.0
 11
1289.997701684916
 21
3825.353330027929
 31
0.0
 11
1188.280313752187
 21
3773.77530902186
 31
0.0
  0
SPLINE
  5
79
330
1F
100
AcDbEntity
  8
0
  6
CONTINUOUS
 62
     7
100
AcDbSpline
210
0.0
220
0.0
230
1.0
 70
     8
 71
     3
 72
     9
 73
     5
 74
     3
 42
0.0000000001
 43
0.0000000001
 44
0.00000001
 40
0.0
 40
0.0
 40
0.0
 40
0.0
 40
40.00452218596656
 40
80.85166897251875
 40
80.85166897251875
 40
80.85166897251875
 40
80.85166897251875
 10
1485.915787135687
 20
3825.442937228666
 30
0.0
 10
1499.017769218752
 20
3821.906140822793
 30
0.0
 10
1525.497703495667
 20
3814.758051641737
 30
0.0
 10
1545.188312451428
 20
3795.647340339238
 30
0.0
 10
1555.13622329302
 20
3785.992400129729
 30
0.0
 11
1485.915787135687
 21
3825.442937228666
 31
0.0
 11
1523.559596390425
 21
3811.903904023878
 31
0.0
 11
1555.13622329302
 21
3785.992400129729
 31
0.0
  0
SPLINE
  5
7A
330
1F
100
AcDbEntity
  8
0
  6
CONTINUOUS
 62
     7
100
AcDbSpline
210
0.0
220
0.0
230
1.0
 70
     8
 71
     3
 72
     9
 73
     5
 74
     3
 42
0.0000000001
 43
0.0000000001
 44
0.00000001
 40
0.0
 40
0.0
 40
0.0
 40
0.0
 40
38.79952716191282
 40
78.20062844562263
 40
78.20062844562263
 40
78.20062844562263
 40
78.20062844562263
 10
1485.915787135687
 20
3825.442937228666
 30
0.0
 10
1499.076286380297
 20
3825.199641985602
 30
0.0
 10
1525.601334154511
 20
3824.709279285409
 30
0.0
 10
1549.040353617438
 20
3837.154538477383
 30
0.0
 10
1560.850018043495
 20
3843.425036907788
 30
0.0
 11
1485.915787135687
 21
3825.442937228666
 31
0.0
 11
1524.637602083613
 21
3827.897393406033
 31
0.0
 11
1560.850018043495
 21
3843.425036907788
 31
0.0
  0
SPLINE
  5
7B
330
1F
100
AcDbEntity
  8
0
  6
CONTINUOUS
 62
     7
100
AcDbSpline
210
0.0
220
0.0
230
1.0
 70
     8
 71
     3
 72
     9
 73
     5
 74
     3
 42
0.0000000001
 43
0.0000000001
 44
0.00000001
 40
0.0
 40
0.0
 40
0.0
 40
0.0
 40
30.91711735759484
 40
62.88814443035173
 40
62.88814443035173
 40
62.88814443035173
 40
62.88814443035173
 10
1555.13622329302
 20
3785.992400129729
 30
0.0
 10
1549.924283308053
 20
3795.97076303356
 30
0.0
 10
1539.322737544719
 20
3816.267633541135
 30
0.0
 10
1553.594533342085
 20
3834.27199388092
 30
0.0
 10
1560.850018043495
 20
3843.425036907788
 30
0.0
 11
1555.13622329302
 21
3785.992400129729
 31
0.0
 11
1545.512065427558
 21
3815.373409831303
 31
0.0
 11
1560.850018043495
 21
3843.425036907788
 31
0.0
  0
SPLINE
  5
7C
330
1F
100
AcDbEntity
  8
0
  6
CONTINUOUS
 62
     7
100
AcDbSpline
210
0.0
220
0.0
230
1.0
 70
     8
 71
     3
 72
     9
 73
     5
 74
     3
 42
0.0000000001
 43
0.0000000001
 44
0.00000001
 40
0.0
 40
0.0
 40
0.0
 40
0.0
 40
36.31794772404624
 40
73.3143159967955
 40
73.3143159967955
 40
73.3143159967955
 40
73.3143159967955
 10
1581.379353675954
 20
3741.71722339316
 30
0.0
 10
1586.244962665848
 20
3730.225565384399
 30
0.0
 10
1596.06707039375
 20
3707.027584788608
 30
0.0
 10
1589.425928958433
 20
3682.709788036821
 30
0.0
 10
1586.074631044078
 20
3670.438376212556
 30
0.0
 11
1581.379353675954
 21
3741.71722339316
 31
0.0
 11
1591.936187993066
 21
3706.967452514957
 31
0.0
 11
1586.074631044078
 21
3670.438376212556
 31
0.0
  0
SPLINE
  5
7D
330
1F
100
AcDbEntity
  8
0
  6
CONTINUOUS
 62
     7
100
AcDbSpline
210
0.0
220
0.0
230
1.0
 70
     8
 71
     3
 72
     9
 73
     5
 74
     3
 42
0.0000000001
 43
0.0000000001
 44
0.00000001
 40
0.0
 40
0.0
 40
0.0
 40
0.0
 40
40.30006611077557
 40
80.24620198940954
 40
80.24620198940954
 40
80.24620198940954
 40
80.24620198940954
 10
1581.379353675954
 20
3741.71722339316
 30
0.0
 10
1593.181106806597
 20
3734.995391036533
 30
0.0
 10
1616.680965664087
 20
3721.610759965555
 30
0.0
 10
1643.525842512699
 20
3718.358543125045
 30
0.0
 10
1656.889080543345
 20
3716.739606744293
 30
0.0
 11
1581.379353675954
 21
3741.71722339316
 31
0.0
 11
1617.628260525075
 21
3724.107223938968
 31
0.0
 11
1656.889080543345
 21
3716.739606744293
 31
0.0
  0
SPLINE
  5
7E
330
1F
100
AcDbEntity
  8
0
  6
CONTINUOUS
 62
     7
100
AcDbSpline
210
0.0
220
0.0
230
1.0
 70
     8
 71
     3
 72
     9
 73
     5
 74
     3
 42
0.0000000001
 43
0.0000000001
 44
0.00000001
 40
0.0
 40
0.0
 40
0.0
 40
0.0
 40
42.78269431464589
 40
85.18359153651691
 40
85.18359153651691
 40
85.18359153651691
 40
85.18359153651691
 10
1586.074631044078
 20
3670.438376212556
 30
0.0
 10
1596.574317096856
 20
3680.26553464985
 30
0.0
 10
1617.479988941729
 20
3699.832152968241
 30
0.0
 10
1643.79202729754
 20
3711.120654026619
 30
0.0
 10
1656.889080543345
 20
3716.739606744293
 30
0.0
 11
1586.074631044078
 21
3670.438376212556
 31
0.0
 11
1618.937423783718
 21
3697.831729168554
 31
0.0
 11
1656.889080543345
 21
3716.739606744293
 31
0.0
  0
SPLINE
  5
7F
330
1F
100
AcDbEntity
  8
0
  6
CONTINUOUS
 62
     7
100
AcDbSpline
210
0.0
220
0.0
230
1.0
 70
     8
 71
     3
 72
    15
 73
    11
 74
     9
 42
0.0000000001
 43
0.0000000001
 44
0.00000001
 40
0.0
 40
0.0
 40
0.0
 40
0.0
 40
40.15106719631821
 40
81.50598185377433
 40
106.2244660686978
 40
129.6980542139128
 40
152.1920413916324
 40
174.1871512136336
 40
206.4404816449074
 40
236.1238603872095
 40
236.1238603872095
 40
236.1238603872095
 40
236.1238603872095
 10
1581.379353675954
 20
3773.775309021878
 30
0.0
 10
1587.151768492502
 20
3786.805271675162
 30
0.0
 10
1598.869672153432
 20
3813.255873707264
 30
0.0
 10
1638.021731179715
 20
3819.000917691685
 30
0.0
 10
1667.684665854786
 20
3816.731079684682
 30
0.0
 10
1688.772199461155
 20
3802.713192584671
 30
0.0
 10
1696.601289671067
 20
3780.553073323563
 30
0.0
 10
1694.721725316915
 20
3753.177781876912
 30
0.0
 10
1667.786944100793
 20
3736.235438669081
 30
0.0
 10
1647.466109093656
 20
3733.824583334086
 30
0.0
 10
1637.727279731795
 20
3732.669172706747
 30
0.0
 11
1581.379353675954
 21
3773.775309021878
 31
0.0
 11
1603.143141414505
 21
3807.516170603565
 31
0.0
 11
1643.187502016321
 21
3817.844682128329
 31
0.0
 11
1667.679555255385
 21
3814.506600341095
 31
0.0
 11
1686.869280292516
 21
3800.987584348409
 31
0.0
 11
1695.070063091964
 21
3780.041782367399
 31
0.0
 11
1692.329502577038
 21
3758.218075437871
 31
0.0
 11
1666.841659013762
 21
3738.453279602777
 31
0.0
 11
1637.727279731795
 21
3732.669172706747
 31
0.0
  0
SPLINE
  5
80
330
1F
100
AcDbEntity
  8
0
  6
CONTINUOUS
 62
     7
100
AcDbSpline
210
0.0
220
0.0
230
1.0
 70
     8
 71
     3
 72
    19
 73
    15
 74
    13
 42
0.0000000001
 43
0.0000000001
 44
0.00000001
 40
0.0
 40
0.0
 40
0.0
 40
0.0
 40
41.4021605119805
 40
84.95046523803484
 40
111.5953808225952
 40
137.4809870988841
 40
170.8794165788088
 40
205.5337278620082
 40
246.6383689281714
 40
283.8967172763211
 40
315.8925324662651
 40
350.8935062723363
 40
409.3904806766666
 40
466.8548760778305
 40
466.8548760778305
 40
466.8548760778305
 40
466.8548760778305
 10
1581.379353675954
 20
3773.775309021878
 30
0.0
 10
1578.115170060555
 20
3787.84752927415
 30
0.0
 10
1571.417598887419
 20
3816.721424804714
 30
0.0
 10
1596.779561700216
 20
3849.272153680185
 30
0.0
 10
1623.709953106857
 20
3866.490753551816
 30
0.0
 10
1651.298236399678
 20
3875.118955775614
 30
0.0
 10
1682.50159813582
 20
3879.900536167617
 30
0.0
 10
1719.089991721147
 20
3873.835274525869
 30
0.0
 10
1752.883876348699
 20
3856.375685819734
 30
0.0
 10
1777.140713980564
 20
3823.732899147903
 30
0.0
 10
1767.55594084056
 20
3787.426365612518
 30
0.0
 10
1743.149419669984
 20
3753.440096232764
 30
0.0
 10
1696.330868164982
 20
3726.055889439549
 30
0.0
 10
1657.145500396059
 20
3730.477870139258
 30
0.0
 10
1637.727279731795
 20
3732.669172706747
 30
0.0
 11
1581.379353675954
 21
3773.775309021878
 31
0.0
 11
1577.763481124782
 21
3815.019270528424
 31
0.0
 11
1602.053827472901
 21
3851.163895561778
 31
0.0
 11
1624.473716606
 21
3865.561815472929
 31
0.0
 11
1649.011739119808
 21
3873.804998317127
 31
0.0
 11
1682.13394852987
 21
3878.091527859953
 31
0.0
 11
1716.354480628943
 21
3872.625590303673
 31
0.0
 11
1752.326005794988
 21
3852.734866475549
 31
0.0
 11
1772.048747931093
 21
3821.124773716039
 31
0.0
 11
1766.265253329513
 21
3789.656005391515
 31
0.0
 11
1746.203695784343
 21
3760.974965029717
 31
0.0
 11
1695.190770327039
 21
3732.34670188386
 31
0.0
 11
1637.727279731795
 21
3732.669172706747
 31
0.0
  0
SPLINE
  5
81
330
1F
100
AcDbEntity
  8
0
  6
CONTINUOUS
 62
     7
100
AcDbSpline
210
0.0
220
0.0
230
1.0
 70
     8
 71
     3
 72
     9
 73
     5
 74
     3
 42
0.0000000001
 43
0.0000000001
 44
0.00000001
 40
0.0
 40
0.0
 40
0.0
 40
0.0
 40
27.97629516252824
 40
57.0822149416436
 40
57.0822149416436
 40
57.0822149416436
 40
57.0822149416436
 10
1188.28031375217
 20
3758.218075437872
 30
0.0
 10
1197.856453927512
 20
3757.860637067609
 30
0.0
 10
1217.395398903056
 20
3757.131327709055
 30
0.0
 10
1233.574870310119
 20
3768.154600481594
 30
0.0
 10
1241.824697289045
 20
3773.775309021878
 30
0.0
 11
1188.28031375217
 21
3758.218075437872
 31
0.0
 11
1216.201778012488
 21
3759.96876803815
 31
0.0
 11
1241.824697289045
 21
3773.775309021878
 31
0.0
  0
SPLINE
  5
82
330
1F
100
AcDbEntity
  8
0
  6
CONTINUOUS
 62
     7
100
AcDbSpline
210
0.0
220
0.0
230
1.0
 70
     8
 71
     3
 72
     9
 73
     5
 74
     3
 42
0.0000000001
 43
0.0000000001
 44
0.00000001
 40
0.0
 40
0.0
 40
0.0
 40
0.0
 40
46.28733523697964
 40
92.04487731936132
 40
92.04487731936132
 40
92.04487731936132
 40
92.04487731936132
 10
1188.28031375217
 20
3699.195796970249
 30
0.0
 10
1195.916927563755
 20
3712.659298689846
 30
0.0
 10
1211.102748432983
 20
3739.432202287009
 30
0.0
 10
1231.623418721245
 20
3762.37161844458
 30
0.0
 10
1241.824697289045
 20
3773.775309021878
 30
0.0
 11
1188.28031375217
 21
3699.195796970249
 31
0.0
 11
1212.53926492612
 21
3738.616866099338
 31
0.0
 11
1241.824697289045
 21
3773.775309021878
 31
0.0
  0
SPLINE
  5
83
330
1F
100
AcDbEntity
  8
0
  6
CONTINUOUS
 62
     7
100
AcDbSpline
210
0.0
220
0.0
230
1.0
 70
     8
 71
     3
 72
     9
 73
     5
 74
     3
 42
0.0000000001
 43
0.0000000001
 44
0.00000001
 40
0.0
 40
0.0
 40
0.0
 40
0.0
 40
46.92681255348737
 40
91.76027915037815
 40
91.76027915037815
 40
91.76027915037815
 40
91.76027915037815
 10
1188.28031375217
 20
3654.574954448729
 30
0.0
 10
1193.803910551753
 20
3639.545078662742
 30
0.0
 10
1204.604703460202
 20
3610.155790904366
 30
0.0
 10
1229.608169065625
 20
3591.372159767697
 30
0.0
 10
1241.82469728902
 20
3582.19460160275
 30
0.0
 11
1188.28031375217
 21
3654.574954448729
 31
0.0
 11
1208.565624476929
 21
3612.259095657608
 31
0.0
 11
1241.82469728902
 21
3582.19460160275
 31
0.0
  0
SPLINE
  5
84
330
1F
100
AcDbEntity
  8
0
  6
CONTINUOUS
 62
     7
100
AcDbSpline
210
0.0
220
0.0
230
1.0
 70
     8
 71
     3
 72
     9
 73
     5
 74
     3
 42
0.0000000001
 43
0.0000000001
 44
0.00000001
 40
0.0
 40
0.0
 40
0.0
 40
0.0
 40
45.18300977586906
 40
89.63353597277485
 40
89.63353597277485
 40
89.63353597277485
 40
89.63353597277485
 10
1327.933893111454
 20
3877.604995962911
 30
0.0
 10
1339.002748834966
 20
3866.991936331715
 30
0.0
 10
1360.961017719495
 20
3845.937870501377
 30
0.0
 10
1390.376599874245
 20
3838.222519250523
 30
0.0
 10
1404.964199158112
 20
3834.396368478131
 30
0.0
 11
1327.933893111454
 21
3877.604995962911
 31
0.0
 11
1363.035383614033
 21
3849.155220271288
 31
0.0
 11
1404.964199158112
 21
3834.396368478131
 31
0.0
  0
SPLINE
  5
85
330
1F
100
AcDbEntity
  8
0
  6
CONTINUOUS
 62
     7
100
AcDbSpline
210
0.0
220
0.0
230
1.0
 70
     8
 71
     3
 72
     9
 73
     5
 74
     3
 42
0.0000000001
 43
0.0000000001
 44
0.00000001
 40
0.0
 40
0.0
 40
0.0
 40
0.0
 40
54.97218773742446
 40
110.4724524057274
 40
110.4724524057274
 40
110.4724524057274
 40
110.4724524057274
 10
1404.964199158112
 20
3834.396368478131
 30
0.0
 10
1386.282504155388
 20
3835.077978936592
 30
0.0
 10
1348.739652997552
 20
3836.447747578347
 30
0.0
 10
1315.813317909991
 20
3818.341484756616
 30
0.0
 10
1299.271453652237
 20
3809.245077852665
 30
0.0
 11
1404.964199158112
 21
3834.396368478131
 31
0.0
 11
1350.062235677149
 21
3831.618630086263
 31
0.0
 11
1299.271453652237
 21
3809.245077852665
 31
0.0
  0
SPLINE
  5
86
330
1F
100
AcDbEntity
  8
0
  6
CONTINUOUS
 62
     7
100
AcDbSpline
210
0.0
220
0.0
230
1.0
 70
     8
 71
     3
 72
     9
 73
     5
 74
     3
 42
0.0000000001
 43
0.0000000001
 44
0.00000001
 40
0.0
 40
0.0
 40
0.0
 40
0.0
 40
39.00643221692139
 40
77.77746738499408
 40
77.77746738499408
 40
77.77746738499408
 40
77.77746738499408
 10
1327.933893111454
 20
3877.604995962911
 30
0.0
 10
1328.581258522589
 20
3863.890581743682
 30
0.0
 10
1329.872082606956
 20
3836.544517414896
 30
0.0
 10
1309.451061586954
 20
3818.326511832085
 30
0.0
 10
1299.271453652237
 20
3809.245077852665
 30
0.0
 11
1327.933893111454
 21
3877.604995962911
 31
0.0
 11
1324.415122404526
 21
3838.757602137773
 31
0.0
 11
1299.271453652237
 21
3809.245077852665
 31
0.0
  0
SPLINE
  5
87
330
1F
100
AcDbEntity
  8
0
  6
CONTINUOUS
 62
     7
100
AcDbSpline
210
0.0
220
0.0
230
1.0
 70
     8
 71
     3
 72
     9
 73
     5
 74
     3
 42
0.0000000001
 43
0.0000000001
 44
0.00000001
 40
0.0
 40
0.0
 40
0.0
 40
0.0
 40
119.2302643819038
 40
238.4605287638067
 40
238.4605287638067
 40
238.4605287638067
 40
238.4605287638067
 10
1390.430297012895
 20
3913.798799883848
 30
0.0
 10
1426.960984543512
 20
3890.317766253263
 30
0.0
 10
1500.022359604745
 20
3843.355698992093
 30
0.0
 10
1573.083734665978
 20
3890.317766253263
 30
0.0
 10
1609.614422196595
 20
3913.798799883848
 30
0.0
 11
1390.430297012895
 21
3913.798799883848
 31
0.0
 11
1500.022359604745
 21
3866.836732622678
 31
0.0
 11
1609.614422196595
 21
3913.798799883848
 31
0.0
  0
SPLINE
  5
88
330
1F
100
AcDbEntity
  8
0
  6
CONTINUOUS
 62
     7
100
AcDbSpline
210
0.0
220
0.0
230
1.0
 70
     8
 71
     3
 72
    20
 73
    16
 74
    14
 42
0.0000000001
 43
0.0000000001
 44
0.00000001
 40
0.0
 40
0.0
 40
0.0
 40
0.0
 40
72.23552771138665
 40
145.6608436097459
 40
197.8143694424977
 40
248.8031958875429
 40
289.8566871127448
 40
331.002091884922
 40
354.7383835539866
 40
377.9719885261621
 40
408.7633563607642
 40
440.0322023714869
 40
542.760560004401
 40
640.3481446383292
 40
739.2408472346991
 40
739.2408472346991
 40
739.2408472346991
 40
739.2408472346991
 10
1439.006761934512
 20
3817.84468212833
 30
0.0
 10
1414.789711241586
 20
3818.486304972898
 30
0.0
 10
1365.956731883207
 20
3819.78011880357
 30
0.0
 10
1302.304673168249
 20
3793.722840054776
 30
0.0
 10
1261.165382816019
 20
3750.194877849231
 30
0.0
 10
1243.722540074045
 20
3702.655115198127
 30
0.0
 10
1254.252054562851
 20
3657.878191274351
 30
0.0
 10
1274.326750417304
 20
3627.889781967096
 30
0.0
 10
1297.576812163927
 20
3609.558768603627
 30
0.0
 10
1320.559404087249
 20
3597.423651847073
 30
0.0
 10
1347.170023187108
 20
3587.14960873829
 30
0.0
 10
1401.611150348192
 20
3576.899338772919
 30
0.0
 10
1478.293727863771
 20
3589.481109786805
 30
0.0
 10
1574.643750861183
 20
3652.442186704639
 30
0.0
 10
1561.667464092394
 20
3722.80365412433
 30
0.0
 10
1555.13622329302
 20
3758.218075437872
 30
0.0
 11
1439.006761934512
 21
3817.84468212833
 31
0.0
 11
1366.838304440595
 21
3814.732575656624
 31
0.0
 11
1299.271453652232
 21
3785.992400129725
 31
0.0
 11
1263.848333545063
 21
3747.714562956492
 31
0.0
 11
1248.17064974244
 21
3699.195796970248
 31
0.0
 11
1256.509269919349
 21
3658.998078685214
 31
0.0
 11
1279.566026524016
 21
3624.919781944628
 31
0.0
 11
1298.089621807742
 21
3610.077681016403
 31
0.0
 11
1318.489890710884
 21
3598.958803884128
 31
0.0
 11
1347.301880360806
 21
3588.09705515114
 31
0.0
 11
1378.008586028322
 21
3582.194601602758
 31
0.0
 11
1479.516283962445
 21
3597.983924643047
 31
0.0
 11
1555.41434341048
 21
3659.325763926742
 31
0.0
 11
1555.13622329302
 21
3758.218075437872
 31
0.0
  0
SPLINE
  5
89
330
1F
100
AcDbEntity
  8
0
  6
CONTINUOUS
 62
     7
100
AcDbSpline
210
0.0
220
0.0
230
1.0
 70
     8
 71
     3
 72
    21
 73
    17
 74
    15
 42
0.0000000001
 43
0.0000000001
 44
0.00000001
 40
0.0
 40
0.0
 40
0.0
 40
0.0
 40
67.7605724400629
 40
135.2672861615554
 40
169.268016526421
 40
203.6561259538707
 40
215.3378125597208
 40
226.8092019346604
 40
244.3377411215157
 40
261.7164281707364
 40
277.9628308990048
 40
294.1812583791747
 40
318.7555105733568
 40
343.4201392502728
 40
415.4203278299321
 40
492.5970399815673
 40
492.5970399815673
 40
492.5970399815673
 40
492.5970399815673
 10
1439.006761934512
 20
3817.84468212833
 30
0.0
 10
1416.723334929533
 20
3814.458528566214
 30
0.0
 10
1372.239963718216
 20
3807.698907353176
 30
0.0
 10
1322.729119006452
 20
3765.563788487622
 30
0.0
 10
1322.97777356926
 20
3718.095530209632
 30
0.0
 10
1332.815004273545
 20
3692.513718370347
 30
0.0
 10
1345.280968330239
 20
3677.794756506655
 30
0.0
 10
1355.596890727454
 20
3668.935179094355
 30
0.0
 10
1368.790095133442
 20
3660.716360082196
 30
0.0
 10
1384.659163744623
 20
3654.261417436169
 30
0.0
 10
1400.900950107321
 20
3650.504589297928
 30
0.0
 10
1419.795513660731
 20
3648.333762519177
 30
0.0
 10
1441.735063645552
 20
3647.755655876614
 30
0.0
 10
1481.555250655317
 20
3652.562430497616
 30
0.0
 10
1541.084935406631
 20
3679.501551656827
 30
0.0
 10
1550.34534681106
 20
3731.379173155499
 30
0.0
 10
1555.13622329302
 20
3758.218075437872
 30
0.0
 11
1439.006761934512
 21
3817.84468212833
 31
0.0
 11
1373.39053236486
 21
3800.932982199945
 31
0.0
 11
1326.142490645256
 21
3752.717020619385
 31
0.0
 11
1325.022919062127
 21
3718.734727806589
 31
0.0
 11
1338.012022775009
 21
3686.894105093925
 31
0.0
 11
1345.544206126017
 21
3677.965050500963
 31
0.0
 11
1354.20110790135
 21
3670.438376212559
 31
0.0
 11
1369.059427448309
 21
3661.1389124503
 31
0.0
 11
1385.150829466416
 21
3654.574954448727
 31
0.0
 11
1400.953976404311
 21
3650.805849983685
 31
0.0
 11
1417.052850156563
 21
3648.840232055764
 31
0.0
 11
1441.622232510771
 21
3648.351026949513
 31
0.0
 11
1466.096255098134
 21
3651.411439693479
 31
0.0
 11
1529.569558120279
 21
3685.399186882214
 31
0.0
 11
1555.13622329302
 21
3758.218075437872
 31
0.0
  0
SPLINE
  5
8A
330
1F
100
AcDbEntity
  8
0
  6
CONTINUOUS
 62
     7
100
AcDbSpline
210
0.0
220
0.0
230
1.0
 70
     8
 71
     3
 72
     9
 73
     5
 74
     3
 42
0.0000000001
 43
0.0000000001
 44
0.00000001
 40
0.0
 40
0.0
 40
0.0
 40
0.0
 40
31.89131527321666
 40
63.83063986727663
 40
63.83063986727663
 40
63.83063986727663
 40
63.83063986727663
 10
2265.772862816678
 20
3809.245077852665
 30
0.0
 10
2255.037624797526
 20
3810.330054380748
 30
0.0
 10
2233.550987886521
 20
3812.501640765166
 30
0.0
 10
2213.36376271498
 20
3804.827527146319
 30
0.0
 10
2203.26255836002
 20
3800.987584348415
 30
0.0
 11
2265.772862816678
 21
3809.245077852665
 31
0.0
 11
2233.891513210699
 21
3810.042283696257
 31
0.0
 11
2203.26255836002
 21
3800.987584348415
 31
0.0
  0
SPLINE
  5
8B
330
1F
100
AcDbEntity
  8
0
  6
CONTINUOUS
 62
     7
100
AcDbSpline
210
0.0
220
0.0
230
1.0
 70
     8
 71
     3
 72
     9
 73
     5
 74
     3
 42
0.0000000001
 43
0.0000000001
 44
0.00000001
 40
0.0
 40
0.0
 40
0.0
 40
0.0
 40
22.8063758549619
 40
45.91807796939338
 40
45.91807796939338
 40
45.91807796939338
 40
45.91807796939338
 10
2203.26255836002
 20
3800.987584348415
 30
0.0
 10
2206.298822284273
 20
3808.152974166039
 30
0.0
 10
2212.411998901904
 20
3822.579682312005
 30
0.0
 10
2209.552418496554
 20
3837.990854624335
 30
0.0
 10
2208.113121090753
 20
3845.747678068778
 30
0.0
 11
2203.26255836002
 21
3800.987584348415
 31
0.0
 11
2210.157893284099
 21
3822.726607691762
 31
0.0
 11
2208.113121090753
 21
3845.747678068778
 31
0.0
  0
SPLINE
  5
8C
330
1F
100
AcDbEntity
  8
0
  6
CONTINUOUS
 62
     7
100
AcDbSpline
210
0.0
220
0.0
230
1.0
 70
     8
 71
     3
 72
     9
 73
     5
 74
     3
 42
0.0000000001
 43
0.0000000001
 44
0.00000001
 40
0.0
 40
0.0
 40
0.0
 40
0.0
 40
34.7794811924502
 40
69.04877467769086
 40
69.04877467769086
 40
69.04877467769086
 40
69.04877467769086
 10
2208.113121090753
 20
3845.747678068778
 30
0.0
 10
2216.383063067262
 20
3837.384474646849
 30
0.0
 10
2232.801633458633
 20
3820.780749436889
 30
0.0
 10
2254.836724002524
 20
3813.07131388377
 30
0.0
 10
2265.772862816678
 20
3809.245077852665
 30
0.0
 11
2208.113121090753
 21
3845.747678068778
 31
0.0
 11
2234.347903393003
 21
3822.914620683278
 31
0.0
 11
2265.772862816678
 21
3809.245077852665
 31
0.0
  0
SPLINE
  5
8D
330
1F
100
AcDbEntity
  8
0
  6
CONTINUOUS
 62
     7
100
AcDbSpline
210
0.0
220
0.0
230
1.0
 70
     8
 71
     3
 72
     9
 73
     5
 74
     3
 42
0.0000000001
 43
0.0000000001
 44
0.00000001
 40
0.0
 40
0.0
 40
0.0
 40
0.0
 40
43.40874190405042
 40
86.58958349162043
 40
86.58958349162043
 40
86.58958349162043
 40
86.58958349162043
 10
2366.542661736179
 20
3733.726156809314
 30
0.0
 10
2363.433237582758
 20
3748.595132223251
 30
0.0
 10
2357.230714069437
 20
3778.255019415692
 30
0.0
 10
2331.009243741127
 20
3793.42337020147
 30
0.0
 10
2317.933015506937
 20
3800.987584348415
 30
0.0
 11
2366.542661736179
 21
3733.726156809314
 31
0.0
 11
2352.183273370086
 21
3774.691103281196
 31
0.0
 11
2317.933015506937
 21
3800.987584348415
 31
0.0
  0
SPLINE
  5
8E
330
1F
100
AcDbEntity
  8
0
  6
CONTINUOUS
 62
     7
100
AcDbSpline
210
0.0
220
0.0
230
1.0
 70
     8
 71
     3
 72
     9
 73
     5
 74
     3
 42
0.0000000001
 43
0.0000000001
 44
0.00000001
 40
0.0
 40
0.0
 40
0.0
 40
0.0
 40
44.48864935281897
 40
88.5544660048133
 40
88.5544660048133
 40
88.5544660048133
 40
88.5544660048133
 10
2317.933015506937
 20
3800.987584348415
 30
0.0
 10
2332.84433092017
 20
3798.819684960764
 30
0.0
 10
2362.525240389376
 20
3794.504490514131
 30
0.0
 10
2390.851484762015
 20
3804.347214524478
 30
0.0
 10
2404.946980418853
 20
3809.24507785271
 30
0.0
 11
2317.933015506937
 21
3800.987584348415
 31
0.0
 11
2362.325053602089
 21
3798.057247337654
 31
0.0
 11
2404.946980418853
 21
3809.24507785271
 31
0.0
  0
SPLINE
  5
8F
330
1F
100
AcDbEntity
  8
0
  6
CONTINUOUS
 62
     7
100
AcDbSpline
210
0.0
220
0.0
230
1.0
 70
     8
 71
     3
 72
     9
 73
     5
 74
     3
 42
0.0000000001
 43
0.0000000001
 44
0.00000001
 40
0.0
 40
0.0
 40
0.0
 40
0.0
 40
27.68011376661024
 40
56.47927253104667
 40
56.47927253104667
 40
56.47927253104667
 40
56.47927253104667
 10
2404.946980418837
 20
3773.775309021878
 30
0.0
 10
2396.803079674623
 20
3769.039461838745
 30
0.0
 10
2380.186038520946
 20
3759.376307778871
 30
0.0
 10
2371.150131270253
 20
3742.388403040657
 30
0.0
 10
2366.542661736179
 20
3733.726156809314
 30
0.0
 11
2404.946980418837
 21
3773.775309021878
 31
0.0
 11
2382.336201769142
 21
3757.808424949304
 31
0.0
 11
2366.542661736179
 21
3733.726156809314
 31
0.0
  0
SPLINE
  5
90
330
1F
100
AcDbEntity
  8
0
  6
CONTINUOUS
 62
     7
100
AcDbSpline
210
0.0
220
0.0
230
1.0
 70
     8
 71
     3
 72
     9
 73
     5
 74
     3
 42
0.0000000001
 43
0.0000000001
 44
0.00000001
 40
0.0
 40
0.0
 40
0.0
 40
0.0
 40
57.07101280629762
 40
113.6516868333745
 40
113.6516868333745
 40
113.6516868333745
 40
113.6516868333745
 10
2404.946980418853
 20
3748.91799036011
 30
0.0
 10
2390.307955898655
 20
3732.558964223928
 30
0.0
 10
2361.155681416291
 20
3699.981464300481
 30
0.0
 10
2390.391926364723
 20
3667.554814054773
 30
0.0
 10
2404.946980418853
 20
3651.41143969349
 30
0.0
 11
2404.946980418853
 21
3748.91799036011
 31
0.0
 11
2375.753264126659
 21
3699.878950485868
 31
0.0
 11
2404.946980418853
 21
3651.41143969349
 31
0.0
  0
SPLINE
  5
91
330
1F
100
AcDbEntity
  8
0
  6
CONTINUOUS
 62
     7
100
AcDbSpline
210
0.0
220
0.0
230
1.0
 70
     8
 71
     3
 72
     9
 73
     5
 74
     3
 42
0.0000000001
 43
0.0000000001
 44
0.00000001
 40
0.0
 40
0.0
 40
0.0
 40
0.0
 40
108.2881140099082
 40
211.1253853521144
 40
211.1253853521144
 40
211.1253853521144
 40
211.1253853521144
 10
2226.405237367354
 20
3913.79879988383
 30
0.0
 10
2248.864481375311
 20
3881.557712426129
 30
0.0
 10
2292.652450066531
 20
3818.698440419088
 30
0.0
 10
2368.165335080278
 20
3829.254571984518
 30
0.0
 10
2404.946980418853
 20
3834.39636847814
 30
0.0
 11
2226.405237367354
 21
3913.79879988383
 31
0.0
 11
2302.129022704716
 21
3836.389343290956
 31
0.0
 11
2404.946980418853
 21
3834.39636847814
 31
0.0
  0
SPLINE
  5
92
330
1F
100
AcDbEntity
  8
0
  6
CONTINUOUS
 62
     7
100
AcDbSpline
210
0.0
220
0.0
230
1.0
 70
     8
 71
     3
 72
    20
 73
    16
 74
    14
 42
0.0000000001
 43
0.0000000001
 44
0.00000001
 40
0.0
 40
0.0
 40
0.0
 40
0.0
 40
21.90532452162601
 40
43.95770818630356
 40
62.22926009867617
 40
80.67339086120795
 40
97.2981804323131
 40
113.8401443995226
 40
148.3521373816315
 40
183.0631738757619
 40
246.0095184786238
 40
306.4246681540068
 40
340.8207408672723
 40
374.0924656546179
 40
408.807371486688
 40
408.807371486688
 40
408.807371486688
 40
408.807371486688
 10
2217.747319861529
 20
3499.798799883848
 30
0.0
 10
2213.083476425228
 20
3505.370487848848
 30
0.0
 10
2203.724479319425
 20
3516.551268732909
 30
0.0
 10
2189.667200665153
 20
3532.498796259099
 30
0.0
 10
2185.957499419312
 20
3552.419608272666
 30
0.0
 10
2188.599006724537
 20
3570.380590153069
 30
0.0
 10
2197.703337443492
 20
3585.406495562256
 30
0.0
 10
2214.06884438751
 20
3601.050569123845
 30
0.0
 10
2238.607762179958
 20
3616.553141235171
 30
0.0
 10
2281.337307102117
 20
3628.608319855552
 30
0.0
 10
2335.488205449715
 20
3628.763586318827
 30
0.0
 10
2384.601916599977
 20
3598.809755012531
 30
0.0
 10
2400.740951253691
 20
3558.440894423555
 30
0.0
 10
2399.917135404788
 20
3520.915834806752
 30
0.0
 10
2380.499089391129
 20
3506.936725022363
 30
0.0
 10
2370.583968834845
 20
3499.798799883848
 30
0.0
 11
2217.747319861529
 21
3499.798799883848
 31
0.0
 11
2203.614035464918
 21
3516.534794463265
 31
0.0
 11
2190.776146513297
 21
3534.465110482788
 31
0.0
 11
2186.992665407298
 21
3552.34064907627
 31
0.0
 11
2189.919918787957
 21
3570.551007316316
 31
0.0
 11
2198.263005570401
 21
3584.930733712327
 31
0.0
 11
2209.960954511985
 21
3596.626654473539
 31
0.0
 11
2239.190471980424
 21
3614.976394748522
 31
0.0
 11
2272.446826344143
 21
3624.919781944624
 31
0.0
 11
2335.351728471348
 21
3622.636015925727
 31
0.0
 11
2385.567954028315
 21
3589.045526183678
 31
0.0
 11
2398.538904346447
 21
3557.188905742382
 31
0.0
 11
2395.409164362811
 21
3524.064709179149
 31
0.0
 11
2370.583968834845
 21
3499.798799883848
 31
0.0
  0
SPLINE
  5
93
330
1F
100
AcDbEntity
  8
0
  6
CONTINUOUS
 62
     7
100
AcDbSpline
210
0.0
220
0.0
230
1.0
 70
     8
 71
     3
 72
     9
 73
     5
 74
     3
 42
0.0000000001
 43
0.0000000001
 44
0.00000001
 40
0.0
 40
0.0
 40
0.0
 40
0.0
 40
40.89185043195061
 40
82.79319600061669
 40
82.79319600061669
 40
82.79319600061669
 40
82.79319600061669
 10
1908.34987440572
 20
3679.69472370833
 30
0.0
 10
1920.544663977617
 20
3672.918052266838
 30
0.0
 10
1945.235295302618
 20
3659.197414023261
 30
0.0
 10
1958.271781086196
 20
3634.117348496358
 30
0.0
 10
1964.86950073232
 20
3621.424415462105
 30
0.0
 11
1908.34987440572
 21
3679.69472370833
 31
0.0
 11
1942.091322921033
 21
3656.593682956071
 31
0.0
 11
1964.86950073232
 21
3621.424415462105
 31
0.0
  0
SPLINE
  5
94
330
1F
100
AcDbEntity
  8
0
  6
CONTINUOUS
 62
     7
100
AcDbSpline
210
0.0
220
0.0
230
1.0
 70
     8
 71
     3
 72
     9
 73
     5
 74
     3
 42
0.0000000001
 43
0.0000000001
 44
0.00000001
 40
0.0
 40
0.0
 40
0.0
 40
0.0
 40
44.62772259755008
 40
89.00933146181072
 40
89.00933146181072
 40
89.00933146181072
 40
89.00933146181072
 10
1908.34987440572
 20
3679.69472370833
 30
0.0
 10
1923.061538340142
 20
3676.964064524765
 30
0.0
 10
1952.403734071313
 20
3671.517805243936
 30
0.0
 10
1982.078448154696
 20
3674.675210390358
 30
0.0
 10
1996.874779415453
 20
3676.249547798954
 30
0.0
 11
1908.34987440572
 21
3679.69472370833
 31
0.0
 11
1952.568456144696
 21
3673.665573416842
 31
0.0
 11
1996.874779415453
 21
3676.249547798954
 31
0.0
  0
SPLINE
  5
95
330
1F
100
AcDbEntity
  8
0
  6
CONTINUOUS
 62
     7
100
AcDbSpline
210
0.0
220
0.0
230
1.0
 70
     8
 71
     3
 72
     9
 73
     5
 74
     3
 42
0.0000000001
 43
0.0000000001
 44
0.00000001
 40
0.0
 40
0.0
 40
0.0
 40
0.0
 40
33.93958993766501
 40
67.3673108157104
 40
67.3673108157104
 40
67.3673108157104
 40
67.3673108157104
 10
1964.86950073232
 20
3621.424415462105
 30
0.0
 10
1965.359982701505
 20
3633.500350788141
 30
0.0
 10
1966.333549304056
 20
3657.470094971662
 30
0.0
 10
1986.746068721281
 20
3670.021519524104
 30
0.0
 10
1996.874779415453
 20
3676.249547798954
 30
0.0
 11
1964.86950073232
 21
3621.424415462105
 31
0.0
 11
1971.274815754246
 21
3654.754097497893
 31
0.0
 11
1996.874779415453
 21
3676.249547798954
 31
0.0
  0
SPLINE
  5
96
330
1F
100
AcDbEntity
  8
0
  6
CONTINUOUS
 62
     7
100
AcDbSpline
210
0.0
220
0.0
230
1.0
 70
     8
 71
     3
 72
    17
 73
    13
 74
    11
 42
0.0000000001
 43
0.0000000001
 44
0.00000001
 40
0.0
 40
0.0
 40
0.0
 40
0.0
 40
39.42617623446788
 40
80.43750403696183
 40
105.0088582846535
 40
129.2968951511937
 40
154.525340597645
 40
179.4884922621948
 40
217.0941159113868
 40
255.0495861900269
 40
318.8609022529787
 40
383.8549401995261
 40
383.8549401995261
 40
383.8549401995261
 40
383.8549401995261
 10
1981.743565444853
 20
3913.798799883848
 30
0.0
 10
1971.895296895935
 20
3904.667468296646
 30
0.0
 10
1951.80280462761
 20
3886.037674805127
 30
0.0
 10
1946.245968806169
 20
3848.295091204238
 30
0.0
 10
1956.323154454295
 20
3819.633922666853
 30
0.0
 10
1971.746188296686
 20
3799.758983205332
 30
0.0
 10
1992.813092647884
 20
3785.882694290974
 30
0.0
 10
2020.698044560266
 20
3776.49943013429
 30
0.0
 10
2054.434847596725
 20
3772.442455017892
 30
0.0
 10
2100.255683305632
 20
3777.914120783234
 30
0.0
 10
2157.162665854946
 20
3796.977296778663
 30
0.0
 10
2175.734785694841
 20
3837.706337181415
 30
0.0
 10
2185.106112460753
 20
3858.257849327933
 30
0.0
 11
1981.743565444853
 21
3913.798799883848
 31
0.0
 11
1956.003240539365
 21
3883.934790671566
 31
0.0
 11
1949.608800914059
 21
3843.425036907788
 31
0.0
 11
1957.54171175652
 21
3820.16949186728
 31
0.0
 11
1972.440139820178
 21
3800.987584348411
 31
0.0
 11
1993.328815600928
 21
3786.840581705756
 31
0.0
 11
2016.862011009113
 21
3778.513057769587
 31
0.0
 11
2054.189361367742
 21
3773.946675695244
 31
0.0
 11
2091.931893313028
 21
3777.961523940417
 31
0.0
 11
2150.529414508242
 21
3803.224432867586
 31
0.0
 11
2185.106112460753
 21
3858.257849327933
 31
0.0
  0
SPLINE
  5
97
330
1F
100
AcDbEntity
  8
0
  6
CONTINUOUS
 62
     7
100
AcDbSpline
210
0.0
220
0.0
230
1.0
 70
     8
 71
     3
 72
    15
 73
    11
 74
     9
 42
0.0000000001
 43
0.0000000001
 44
0.00000001
 40
0.0
 40
0.0
 40
0.0
 40
0.0
 40
40.02998181956136
 40
79.63727612050661
 40
116.6691913923804
 40
153.8309747955172
 40
188.3055398774461
 40
223.3164782162071
 40
297.788642789411
 40
372.6819247252672
 40
372.6819247252672
 40
372.6819247252672
 40
372.6819247252672
 10
1900.080162739337
 20
3748.917990360101
 30
0.0
 10
1911.370561134596
 20
3741.730381071511
 30
0.0
 10
1933.832139522683
 20
3727.43105842525
 30
0.0
 10
1971.347904324127
 20
3715.44892803382
 30
0.0
 10
2009.409709541871
 20
3712.407578765907
 30
0.0
 10
2045.542922333266
 20
3715.915650375095
 30
0.0
 10
2080.529710096823
 20
3723.436781523433
 30
0.0
 10
2124.669335422887
 20
3741.13865828965
 30
0.0
 10
2180.188540239183
 20
3779.880936387677
 30
0.0
 10
2183.463843616264
 20
3832.083152455261
 30
0.0
 10
2185.106112460753
 20
3858.257849327933
 30
0.0
 11
1900.080162739337
 21
3748.917990360101
 31
0.0
 11
1934.746311011964
 21
3728.901556901199
 31
0.0
 11
1972.440139820175
 21
3716.739606744296
 31
0.0
 11
2009.330231001852
 21
3713.501718341215
 31
0.0
 11
2046.350687838456
 21
3716.739606744296
 31
0.0
 11
2079.986939694485
 21
3724.295941746524
 31
0.0
 11
2112.508381169506
 21
3737.262114957897
 31
0.0
 11
2169.695075030745
 21
3784.967306933607
 31
0.0
 11
2185.106112460753
 21
3858.257849327933
 31
0.0
  0
SPLINE
  5
98
330
1F
100
AcDbEntity
  8
0
  6
CONTINUOUS
 62
     7
100
AcDbSpline
210
0.0
220
0.0
230
1.0
 70
     8
 71
     3
 72
    11
 73
     7
 74
     5
 42
0.0000000001
 43
0.0000000001
 44
0.00000001
 40
0.0
 40
0.0
 40
0.0
 40
0.0
 40
35.19065380347302
 40
70.82690793472284
 40
132.2658378296543
 40
191.643872845747
 40
191.643872845747
 40
191.643872845747
 40
191.643872845747
 10
1908.34987440572
 20
3913.798799883848
 30
0.0
 10
1899.861377360369
 20
3905.689751622046
 30
0.0
 10
1882.776897995682
 20
3889.368974580383
 30
0.0
 10
1857.74519172391
 20
3852.243153815733
 30
0.0
 10
1857.597629895623
 20
3793.643454364957
 30
0.0
 10
1886.081276400723
 20
3763.655969598512
 30
0.0
 10
1900.080162739337
 20
3748.917990360101
 30
0.0
 11
1908.34987440572
 21
3913.798799883848
 31
0.0
 11
1883.792911333585
 21
3888.592894230813
 31
0.0
 11
1865.091904428945
 21
3858.257849327935
 31
0.0
 11
1864.991074551383
 21
3796.819002171026
 31
0.0
 11
1900.080162739337
 21
3748.917990360101
 31
0.0
  0
SPLINE
  5
99
330
1F
100
AcDbEntity
  8
0
  6
CONTINUOUS
 62
     7
100
AcDbSpline
210
0.0
220
0.0
230
1.0
 70
     8
 71
     3
 72
     9
 73
     5
 74
     3
 42
0.0000000001
 43
0.0000000001
 44
0.00000001
 40
0.0
 40
0.0
 40
0.0
 40
0.0
 40
80.39999554747129
 40
161.1802026227643
 40
161.1802026227643
 40
161.1802026227643
 40
161.1802026227643
 10
2010.037704552053
 20
3499.798799883848
 30
0.0
 10
2036.217169614316
 20
3508.375846587905
 30
0.0
 10
2088.699902412473
 20
3525.570500844427
 30
0.0
 10
2141.200322730717
 20
3508.402865908021
 30
0.0
 10
2167.512455088395
 20
3499.798799883848
 30
0.0
 11
2010.037704552053
 21
3499.798799883848
 31
0.0
 11
2088.580500781727
 21
3516.979848875609
 31
0.0
 11
2167.512455088395
 21
3499.798799883848
 31
0.0
  0
SPLINE
  5
9A
330
1F
100
AcDbEntity
  8
0
  6
CONTINUOUS
 62
     7
100
AcDbSpline
210
0.0
220
0.0
230
1.0
 70
     8
 71
     3
 72
    69
 73
    65
 74
    63
 42
0.0000000001
 43
0.0000000001
 44
0.00000001
 40
0.0
 40
0.0
 40
0.0
 40
0.0
 40
13.53055407254855
 40
27.09403826219571
 40
33.76564397791333
 40
40.45701897378898
 40
46.94877380130698
 40
53.46758431592592
 40
59.71300281010093
 40
65.99188449867839
 40
71.9482266599705
 40
77.94257853964923
 40
83.5989092082389
 40
89.29390571351422
 40
94.67761981236188
 40
100.0940676880414
 40
105.2728742730276
 40
110.4701067589979
 40
115.5453807408256
 40
120.6184343748379
 40
125.7088711350251
 40
130.7763833577467
 40
135.9964240219447
 40
141.1794889477997
 40
146.6202426736129
 40
152.019467615022
 40
157.7375354618636
 40
163.4172669451382
 40
169.4315544661069
 40
175.4149532685849
 40
181.7091272451435
 40
187.9814129745583
 40
194.5096223436578
 40
201.0250800728576
 40
207.7191020698374
 40
214.4091183407071
 40
221.1859024854034
 40
227.966961726908
 40
234.7361852190816
 40
241.5175916371169
 40
248.1891865841826
 40
254.8805800663637
 40
261.372341573259
 40
267.8911433945763
 40
274.136559211462
 40
280.4154440906556
 40
286.3717871798368
 40
292.3661380071316
 40
298.0224683382495
 40
303.7174652007417
 40
309.1011795012427
 40
314.5176272091577
 40
319.696433648532
 40
324.8936661260752
 40
329.9689394206342
 40
335.0419943106529
 40
340.1324379084784
 40
345.19994132049
 40
350.4199401837948
 40
355.6030533455129
 40
361.0440255492471
 40
366.4430124578611
 40
377.5745646194784
 40
388.5771624258186
 40
388.5771624258186
 40
388.5771624258186
 40
388.5771624258186
 10
2049.096876738887
 20
3553.770873564383
 30
0.0
 10
2053.609458190898
 20
3553.951965470551
 30
0.0
 10
2062.645603633759
 20
3554.314590017068
 30
0.0
 10
2073.716437345502
 20
3556.618921835627
 30
0.0
 10
2082.306964769047
 20
3559.226200381725
 30
0.0
 10
2088.498993762107
 20
3561.580356551086
 30
0.0
 10
2094.469450643204
 20
3564.327515233364
 30
0.0
 10
2100.100645561846
 20
3567.419969799855
 30
0.0
 10
2105.432012891612
 20
3570.875628456706
 30
0.0
 10
2110.33537324502
 20
3574.615356919434
 30
0.0
 10
2114.863778434409
 20
3578.676901385819
 30
0.0
 10
2118.893944956
 20
3582.953836380569
 30
0.0
 10
2122.47824417871
 20
3587.500250278422
 30
0.0
 10
2125.514835449214
 20
3592.190318659451
 30
0.0
 10
2128.040537846355
 20
3597.084168760166
 30
0.0
 10
2129.989573168617
 20
3602.052183142308
 30
0.0
 10
2131.373333090766
 20
3607.141755030951
 30
0.0
 10
2132.168563682057
 20
3612.241987911196
 30
0.0
 10
2132.364643438782
 20
3617.364753796274
 30
0.0
 10
2131.971537244777
 20
3622.440881007183
 30
0.0
 10
2130.97766927515
 20
3627.431723550798
 30
0.0
 10
2129.400758051345
 20
3632.320881683317
 30
0.0
 10
2127.25682162949
 20
3637.023505866519
 30
0.0
 10
2124.544712344804
 20
3641.566891938171
 30
0.0
 10
2121.325012688361
 20
3645.841168804757
 30
0.0
 10
2117.566781293398
 20
3649.895139421663
 30
0.0
 10
2113.373235201101
 20
3653.618275258902
 30
0.0
 10
2108.690150278745
 20
3657.059438447352
 30
0.0
 10
2103.649269553021
 20
3660.125208633354
 30
0.0
 10
2098.188366776983
 20
3662.851646400891
 30
0.0
 10
2092.449760894728
 20
3665.171301732882
 30
0.0
 10
2086.379360017914
 20
3667.103617753866
 30
0.0
 10
2080.11323349235
 20
3668.608445926328
 30
0.0
 10
2073.618524404235
 20
3669.691275338992
 30
0.0
 10
2067.01156306502
 20
3670.3353886595
 30
0.0
 10
2060.289527057279
 20
3670.53881798568
 30
0.0
 10
2053.539592590311
 20
3670.301264618394
 30
0.0
 10
2046.793295122753
 20
3669.621678001792
 30
0.0
 10
2040.103463309501
 20
3668.507578902678
 30
0.0
 10
2033.535978340164
 20
3666.967695498942
 30
0.0
 10
2027.10833229632
 20
3665.008382928657
 30
0.0
 10
2020.916581976609
 20
3662.65638938717
 30
0.0
 10
2014.946070919801
 20
3659.908612201054
 30
0.0
 10
2009.314870837974
 20
3656.816357236175
 30
0.0
 10
2003.98349992348
 20
3653.360660116575
 30
0.0
 10
1999.080146534674
 20
3649.620934118236
 30
0.0
 10
1994.551740763298
 20
3645.559386044062
 30
0.0
 10
1990.521572736257
 20
3641.282453421523
 30
0.0
 10
1986.937273749973
 20
3636.736039505513
 30
0.0
 10
1983.90068282417
 20
3632.045970897081
 30
0.0
 10
1981.374979827159
 20
3627.15212096466
 30
0.0
 10
1979.425944558375
 20
3622.184106540492
 30
0.0
 10
1978.042186803601
 20
3617.094534086963
 30
0.0
 10
1977.246955754013
 20
3611.994302033343
 30
0.0
 10
1977.050867856366
 20
3606.871535697957
 30
0.0
 10
1977.443977490485
 20
3601.795407673984
 30
0.0
 10
1978.437869941021
 20
3596.804561311694
 30
0.0
 10
1980.014777372471
 20
3591.915452056553
 30
0.0
 10
1982.158585041783
 20
3587.212656954857
 30
0.0
 10
1984.870922985911
 20
3582.669717413333
 30
0.0
 10
1988.090285205451
 20
3578.393668905488
 30
0.0
 10
1993.08011339264
 20
3573.024114365297
 30
0.0
 10
2000.232935923048
 20
3567.152818831254
 30
0.0
 10
2006.782167027832
 20
3563.725629138891
 30
0.0
 10
2010.03770455202
 20
3562.022017758029
 30
0.0
 11
2049.096876738887
 21
3553.770873564383
 31
0.0
 11
2062.596526544536
 21
3554.684847653186
 31
0.0
 11
2075.895762216747
 21
3557.349136282031
 31
0.0
 11
2082.276775392227
 21
3559.296697238806
 31
0.0
 11
2088.531267101996
 21
3561.674896723259
 31
0.0
 11
2094.426915900788
 21
3564.392286276105
 31
0.0
 11
2100.139061810537
 21
3567.533349731567
 31
0.0
 11
2105.37705348584
 21
3570.934628223081
 31
0.0
 11
2110.366449373977
 21
3574.746489176815
 31
0.0
 11
2114.796404007838
 21
3578.728136308885
 31
0.0
 11
2118.902675796507
 21
3583.095147466987
 31
0.0
 11
2122.399260450696
 21
3587.541266267527
 31
0.0
 11
2125.488372157819
 21
3592.325654844557
 31
0.0
 11
2127.951947942555
 21
3597.112634252387
 31
0.0
 11
2129.9234354065
 21
3602.15754701372
 31
0.0
 11
2131.278266138592
 21
3607.155993905713
 31
0.0
 11
2132.073108389985
 21
3612.2920869061
 31
0.0
 11
2132.266763374058
 21
3617.363664938406
 31
0.0
 11
2131.872074382466
 21
3622.421341655386
 31
0.0
 11
2130.881046883171
 21
3627.414377896503
 31
0.0
 11
2129.326441700521
 21
3632.237538981674
 31
0.0
 11
2127.166318519116
 21
3636.9896640197
 31
0.0
 11
2124.513558105045
 21
3641.442418696433
 31
0.0
 11
2121.245581608201
 21
3645.792376250366
 31
0.0
 11
2117.579660628652
 21
3649.756295187434
 31
0.0
 11
2113.308310890848
 21
3653.557856882112
 31
0.0
 11
2108.735432237442
 21
3656.926555524515
 31
0.0
 11
2103.600111799434
 21
3660.057072795487
 31
0.0
 11
2098.249600335682
 21
3662.735334975661
 31
0.0
 11
2092.416036324171
 21
3665.098840205355
 31
0.0
 11
2086.440771619619
 21
3667.00613671664
 31
0.0
 11
2080.093905507536
 21
3668.534144609975
 31
0.0
 11
2073.667751374236
 21
3669.609194597674
 31
0.0
 11
2067.005531792481
 21
3670.260931308724
 31
0.0
 11
2060.318641356229
 21
3670.465416022264
 31
0.0
 11
2053.546023979789
 21
3670.227808749356
 31
0.0
 11
2046.799047518522
 21
3669.548785135696
 31
0.0
 11
2040.121907934485
 21
3668.4360436283
 31
0.0
 11
2033.519755878629
 21
3666.887153303608
 31
0.0
 11
2027.138719318028
 21
3664.939705858878
 31
0.0
 11
2020.884250993376
 21
3662.56139286238
 31
0.0
 11
2014.988608134046
 21
3659.843974466616
 31
0.0
 11
2009.276456284837
 21
3656.702939854074
 31
0.0
 11
2004.038463140318
 21
3653.3016685412
 31
0.0
 11
1999.0490687214
 21
3649.489800408822
 31
0.0
 11
1994.619114415308
 21
3645.508151524004
 31
0.0
 11
1990.512842298867
 21
3641.141142118653
 31
0.0
 11
1987.016257673968
 21
3636.695023724408
 31
0.0
 11
1983.927145937556
 21
3631.910634741083
 31
0.0
 11
1981.463569776011
 21
3627.123655300383
 31
0.0
 11
1979.492082688874
 21
3622.078742571918
 31
0.0
 11
1978.137253327394
 21
3617.080295459286
 31
0.0
 11
1977.342409705385
 21
3611.944202679538
 31
0.0
 11
1977.148749799251
 21
3606.872625522951
 31
0.0
 11
1977.543443712909
 21
3601.814947930254
 31
0.0
 11
1978.534489672562
 21
3596.821908382194
 31
0.0
 11
1980.089076394851
 21
3591.998750603971
 31
0.0
 11
1982.249127127162
 21
3587.24663855071
 31
0.0
 11
1984.901959990324
 21
3582.79387088921
 31
0.0
 11
1988.17023015628
 21
3578.443860700241
 31
0.0
 11
1991.835857466718
 21
3574.479994398213
 31
0.0
 11
2000.468523533121
 21
3567.452297043262
 31
0.0
 11
2010.03770455202
 21
3562.022017758029
 31
0.0
  0
SPLINE
  5
9B
330
1F
100
AcDbEntity
  8
0
  6
CONTINUOUS
 62
     7
100
AcDbSpline
210
0.0
220
0.0
230
1.0
 70
     8
 71
     3
 72
    57
 73
    53
 74
    51
 42
0.0000000001
 43
0.0000000001
 44
0.00000001
 40
0.0
 40
0.0
 40
0.0
 40
0.0
 40
4.568441109698836
 40
9.189013595441995
 40
11.35668766112668
 40
13.53970876691157
 40
15.63228431198593
 40
17.73885715689699
 40
19.77576028191352
 40
21.8227092109368
 40
23.83207960129888
 40
25.84497087882731
 40
27.85911868651415
 40
29.86928458255721
 40
31.91930708200481
 40
33.95895522570463
 40
36.06995430942726
 40
38.16677015053579
 40
40.35484331979472
 40
42.527734309069
 40
44.79882799792143
 40
47.05588986582575
 40
49.40608965290992
 40
51.74470718322206
 40
54.16150430821435
 40
56.56982147047046
 40
59.0339677113955
 40
61.49301040504287
 40
63.98068008762908
 40
66.46671523784559
 40
68.95180945742854
 40
71.43875730562807
 40
73.8952728357946
 40
76.35710806032087
 40
78.76153999508918
 40
81.17465777441159
 40
83.50841125658425
 40
85.8539253992576
 40
88.1056664986238
 40
90.37155873185233
 40
92.53931379708901
 40
94.72225876145787
 40
96.81481345733458
 40
98.9214056166762
 40
100.9583254666511
 40
103.0052580401507
 40
105.0145795641589
 40
107.0275190052919
 40
109.0418403660939
 40
111.0518388716029
 40
115.2175723094722
 40
119.3325896886785
 40
119.3325896886785
 40
119.3325896886785
 40
119.3325896886785
 10
2049.096876738887
 20
3553.770873564383
 30
0.0
 10
2050.44814342874
 20
3554.479286192958
 30
0.0
 10
2053.166096377233
 20
3555.904195285326
 30
0.0
 10
2056.115740253104
 20
3558.32467509813
 30
0.0
 10
2058.17289027745
 20
3560.49756182206
 30
0.0
 10
2059.499531723981
 20
3562.191396615463
 30
0.0
 10
2060.647268850187
 20
3563.986296925749
 30
0.0
 10
2061.590493850485
 20
3565.842795370966
 30
0.0
 10
2062.332824958669
 20
3567.771943219747
 30
0.0
 10
2062.862216047139
 20
3569.736856061251
 30
0.0
 10
2063.175637330277
 20
3571.73940350708
 30
0.0
 10
2063.272487648954
 20
3573.753187208544
 30
0.0
 10
2063.148142974473
 20
3575.765727260411
 30
0.0
 10
2062.807341543185
 20
3577.765517346657
 30
0.0
 10
2062.251259414052
 20
3579.725320289137
 30
0.0
 10
2061.482606461173
 20
3581.647801898577
 30
0.0
 10
2060.514221338163
 20
3583.495527725051
 30
0.0
 10
2059.342193749852
 20
3585.280272391306
 30
0.0
 10
2057.992519894432
 20
3586.96137581289
 30
0.0
 10
2056.454542025346
 20
3588.553363194781
 30
0.0
 10
2054.764873347842
 20
3590.018740833701
 30
0.0
 10
2052.909295475266
 20
3591.369833915999
 30
0.0
 10
2050.930295200609
 20
3592.57653580738
 30
0.0
 10
2048.8145847896
 20
3593.646477595269
 30
0.0
 10
2046.605261729026
 20
3594.558729089299
 30
0.0
 10
2044.294257831623
 20
3595.31601475565
 30
0.0
 10
2041.920556377401
 20
3595.906346721213
 30
0.0
 10
2039.484594768697
 20
3596.328989392364
 30
0.0
 10
2037.017599408714
 20
3596.579226304109
 30
0.0
 10
2034.530457898176
 20
3596.655326172609
 30
0.0
 10
2032.044325424101
 20
3596.557287985027
 30
0.0
 10
2029.581031510432
 20
3596.285323912113
 30
0.0
 10
2027.150776990027
 20
3595.841186719404
 30
0.0
 10
2024.785358626408
 20
3595.229981393048
 30
0.0
 10
2022.484606980772
 20
3594.452290958994
 30
0.0
 10
2020.287884233546
 20
3593.520628172493
 30
0.0
 10
2018.186684506921
 20
3592.431988805288
 30
0.0
 10
2016.224215216818
 20
3591.20789147728
 30
0.0
 10
2014.386996108354
 20
3589.840382795517
 30
0.0
 10
2012.717301272765
 20
3588.360109733264
 30
0.0
 10
2011.201008982472
 20
3586.754509147749
 30
0.0
 10
2009.874190630644
 20
3585.061426666113
 30
0.0
 10
2008.726540430485
 20
3583.266338417292
 30
0.0
 10
2007.783273472176
 20
3581.409902933749
 30
0.0
 10
2007.040940768594
 20
3579.480729749087
 30
0.0
 10
2006.51157237955
 20
3577.515850030049
 30
0.0
 10
2006.198100091933
 20
3575.51325228513
 30
0.0
 10
2006.101462688619
 20
3573.499613214662
 30
0.0
 10
2006.224954428013
 20
3571.4863034462
 30
0.0
 10
2006.688388467341
 20
3568.793749641661
 30
0.0
 10
2007.784771583703
 20
3565.500462846214
 30
0.0
 10
2009.289799446664
 20
3563.176755549494
 30
0.0
 10
2010.03770455202
 20
3562.022017758029
 30
0.0
 11
2049.096876738887
 21
3553.770873564383
 31
0.0
 11
2053.068785552283
 21
3556.02799441867
 31
0.0
 11
2056.657141463467
 21
3558.938903546533
 31
0.0
 11
2058.144089503278
 21
3560.516178532685
 31
0.0
 11
2059.489106801959
 21
3562.235628914218
 31
0.0
 11
2060.614946972151
 21
3563.999532631269
 31
0.0
 11
2061.567469238574
 21
3565.878455323368
 31
0.0
 11
2062.298059473078
 21
3567.779826473341
 31
0.0
 11
2062.829078782383
 21
3569.756697336896
 31
0.0
 11
2063.139723199475
 21
3571.741910023687
 31
0.0
 11
2063.235602065803
 21
3573.752516533708
 31
0.0
 11
2063.112265659109
 21
3575.762884540316
 31
0.0
 11
2062.774687084572
 21
3577.744501969496
 31
0.0
 11
2062.216608568322
 21
3579.717099398761
 31
0.0
 11
2061.460338507169
 21
3581.611359186832
 31
0.0
 11
2060.482112438102
 21
3583.482025081446
 31
0.0
 11
2059.332492150023
 21
3585.235595685888
 31
0.0
 11
2057.964205192653
 21
3586.943066035944
 31
0.0
 11
2056.455801547949
 21
3588.507090874594
 31
0.0
 11
2054.741264197612
 21
3589.996462627329
 31
0.0
 11
2052.91767348922
 21
3591.326442027099
 31
0.0
 11
2050.911875842223
 21
3592.551274602806
 31
0.0
 11
2048.825612204525
 21
3593.607984585299
 31
0.0
 11
2046.592189542574
 21
3594.531419237268
 31
0.0
 11
2044.303952905306
 21
3595.282395033072
 31
0.0
 11
2041.9128181276
 21
3595.87778664496
 31
0.0
 11
2039.490083921304
 21
3596.298797256261
 31
0.0
 11
2037.015138611461
 21
3596.550086259092
 31
0.0
 11
2034.530272225671
 21
3596.626308387637
 31
0.0
 11
2032.047116687496
 21
3596.528166381147
 31
0.0
 11
2029.575219186982
 21
3596.254977167197
 31
0.0
 11
2027.158848842798
 21
3595.812684379902
 31
0.0
 11
2024.775481584443
 21
3595.196086306175
 31
0.0
 11
2022.498015959109
 21
3594.425084844209
 31
0.0
 11
2020.276897016325
 21
3593.481809667557
 31
0.0
 11
2018.205437317811
 21
3592.406886399139
 31
0.0
 11
2016.216152698337
 21
3591.164234679547
 31
0.0
 11
2014.410919705603
 21
3589.818325388205
 31
0.0
 11
2012.71663229174
 21
3588.3137796854
 31
0.0
 11
2011.229592985546
 21
3586.736479420804
 31
0.0
 11
2009.884666953252
 21
3585.017054317719
 31
0.0
 11
2008.758850235357
 21
3583.25316036599
 31
0.0
 11
2007.806304516635
 21
3581.374227908571
 31
0.0
 11
2007.075705790919
 21
3579.472842104163
 31
0.0
 11
2006.544694972827
 21
3577.495985895046
 31
0.0
 11
2006.234061978301
 21
3575.510820881866
 31
0.0
 11
2006.138171689406
 21
3573.500166698233
 31
0.0
 11
2006.261470706385
 21
3571.489622518913
 31
0.0
 11
2006.599086670631
 21
3569.508181262445
 31
0.0
 11
2007.94778573423
 21
3565.566817804042
 31
0.0
 11
2010.03770455202
 21
3562.022017758029
 31
0.0
  0
SPLINE
  5
9C
330
1F
100
AcDbEntity
  8
0
  6
CONTINUOUS
 62
     7
100
AcDbSpline
210
0.0
220
0.0
230
1.0
 70
     8
 71
     3
 72
    17
 73
    13
 74
    11
 42
0.0000000001
 43
0.0000000001
 44
0.00000001
 40
0.0
 40
0.0
 40
0.0
 40
0.0
 40
32.00492223354475
 40
64.21585648504745
 40
80.78294907328058
 40
97.72154963879818
 40
120.9951981999974
 40
144.4125912875376
 40
203.5081069973295
 40
263.6432424116527
 40
313.1992366335776
 40
368.5226610563366
 40
368.5226610563366
 40
368.5226610563366
 40
368.5226610563366
 10
2023.50084413802
 20
3913.79879988383
 30
0.0
 10
2014.496067244844
 20
3908.115692834522
 30
0.0
 10
1996.428550741211
 20
3896.712897226884
 30
0.0
 10
1980.125386033548
 20
3872.425104333406
 30
0.0
 10
1981.616369882788
 20
3849.932920903819
 30
0.0
 10
1988.291454945122
 20
3832.038322629602
 30
0.0
 10
2002.168380654708
 20
3815.208512324181
 30
0.0
 10
2033.836289019991
 20
3798.181897677375
 30
0.0
 10
2083.94482388055
 20
3798.02352989057
 30
0.0
 10
2136.818113947102
 20
3815.353446967461
 30
0.0
 10
2180.45037461115
 20
3864.309488617727
 30
0.0
 10
2157.938716363858
 20
3896.708477894899
 30
0.0
 10
2146.06391728727
 20
3913.79879988383
 30
0.0
 11
2023.50084413802
 21
3913.79879988383
 31
0.0
 11
1997.755290871213
 21
3894.786132155148
 31
0.0
 11
1981.743565444856
 21
3866.836732622679
 31
0.0
 11
1982.38511857792
 21
3850.282066621683
 31
0.0
 11
1988.263960607622
 21
3834.396368478133
 31
0.0
 11
2003.079817223719
 21
3816.447744294607
 31
0.0
 11
2023.500844138029
 21
3804.986681569824
 31
0.0
 11
2082.466059608111
 21
3801.064521250178
 31
0.0
 11
2138.521937170349
 21
3822.835444566069
 31
0.0
 11
2167.708036503737
 21
3862.885015962341
 31
0.0
 11
2146.06391728727
 21
3913.79879988383
 31
0.0
  0
ENDSEC
  0
SECTION
  2
OBJECTS
  0
DICTIONARY
  5
C
330
0
100
AcDbDictionary
  3
ACAD_GROUP
350
D
  3
ACAD_LAYOUT
350
1A
  3
ACAD_MATERIAL
350
3B
  3
ACAD_MLEADERSTYLE
350
BF
  3
ACAD_MLINESTYLE
350
17
  3
ACAD_PLOTSETTINGS
350
19
  3
ACAD_VISUALSTYLE
350
2A
  3
ACDBHEADERROUNDTRIPXREC
350
9D
  3
ACDBVARIABLEDICTIONARY
350
BD
  0
DICTIONARY
  5
D
102
{ACAD_REACTORS
330
C
102
}
330
C
100
AcDbDictionary
  0
DICTIONARY
  5
1A
102
{ACAD_REACTORS
330
C
102
}
330
C
100
AcDbDictionary
  0
DICTIONARY
  5
3B
102
{ACAD_REACTORS
330
C
102
}
330
C
100
AcDbDictionary
  3
BYBLOCK
350
3D
  3
BYLAYER
350
3C
  3
GLOBAL
350
3E
  0
DICTIONARY
  5
BF
102
{ACAD_REACTORS
330
C
102
}
330
C
100
AcDbDictionary
  0
DICTIONARY
  5
17
102
{ACAD_REACTORS
330
C
102
}
330
C
100
AcDbDictionary
  3
STANDARD
350
18
  0
DICTIONARY
  5
19
102
{ACAD_REACTORS
330
C
102
}
330
C
100
AcDbDictionary
  0
DICTIONARY
  5
2A
102
{ACAD_REACTORS
330
C
102
}
330
C
100
AcDbDictionary
  3
2DWIREFRAME
350
2F
  3
3D_HIDDEN
350
31
  3
3DWIREFRAME
350
30
  3
BASIC
350
32
  3
BRIGHTEN
350
36
  3
COLORCHANGE
350
3A
  3
CONCEPTUAL
350
34
  3
DIM
350
35
  3
FACEPATTERN
350
39
  3
FLAT
350
2B
  3
FLATWITHEDGES
350
2C
  3
GOURAUD
350
2D
  3
GOURAUDWITHEDGES
350
2E
  3
LINEPATTERN
350
38
  3
REALISTIC
350
33
  3
THICKEN
350
37
  0
DICTIONARY
  5
9D
102
{ACAD_REACTORS
330
C
102
}
330
C
100
AcDbDictionary
  3
CEPSNTYPE
350
A6
  3
DIMSTYLEDATA
350
BC
  3
FINGERPRINTGUID
350
A7
  3
HYPERLINKBASE
350
A0
  3
INSUNITS
350
A5
  3
LAYOUTDICT
350
A2
  3
LWETCUNION
350
A4
  3
PLOTSETDICT
350
A3
  3
PSVPSCALE
350
A9
  3
PUCSBASE
350
AC
  3
PUCSORGBACK
350
B2
  3
PUCSORGBOTTOM
350
AE
  3
PUCSORGFRONT
350
B1
  3
PUCSORGLEFT
350
AF
  3
PUCSORGRIGHT
350
B0
  3
PUCSORGTOP
350
AD
  3
PUCSORTHOREF
350
AA
  3
PUCSORTHOVIEW
350
AB
  3
STYLESHEET
350
A1
  3
TSTACKALIGN
350
9E
  3
TSTACKSIZE
350
9F
  3
UCSBASE
350
B5
  3
UCSORGBACK
350
BB
  3
UCSORGBOTTOM
350
B7
  3
UCSORGFRONT
350
BA
  3
UCSORGLEFT
350
B8
  3
UCSORGRIGHT
350
B9
  3
UCSORGTOP
350
B6
  3
UCSORTHOREF
350
B3
  3
UCSORTHOVIEW
350
B4
  3
VERSIONGUID
350
A8
  0
DICTIONARY
  5
BD
102
{ACAD_REACTORS
330
C
102
}
330
C
100
AcDbDictionary
  3
DIMASSOC
350
C0
  3
HIDETEXT
350
C1
  0
MATERIAL
  5
3D
102
{ACAD_REACTORS
330
3B
102
}
102
{ACAD_XDICTIONARY
360
C4
102
}
330
3B
100
AcDbMaterial
  1
ByBlock
  0
MATERIAL
  5
3C
102
{ACAD_REACTORS
330
3B
102
}
102
{ACAD_XDICTIONARY
360
C2
102
}
330
3B
100
AcDbMaterial
  1
ByLayer
  0
MATERIAL
  5
3E
102
{ACAD_REACTORS
330
3B
102
}
102
{ACAD_XDICTIONARY
360
C6
102
}
330
3B
100
AcDbMaterial
  1
Global
  0
MLINESTYLE
  5
18
102
{ACAD_REACTORS
330
17
102
}
330
17
100
AcDbMlineStyle
  2
Standard
 70
     0
  3

 62
   256
 51
90.0
 52
90.0
 71
     2
 49
0.5
 62
   256
  6
BYLAYER
 49
-0.5
 62
   256
  6
BYLAYER
  0
ACAD_PROXY_OBJECT
  5
2F
102
{ACAD_REACTORS
330
2A
102
}
330
2A
100
AcDbProxyObject
 90
      499
 91
      501
 93
      436
310
42CC9915DA5C99599C985B595049028333333333333E3BF0000000000000FB0107901411070040501600405405064090741402480A0340
1001
ACAD
1000
AcDbSavedByObjectVersion
1070
     0
  0
ACAD_PROXY_OBJECT
  5
31
102
{ACAD_REACTORS
330
2A
102
}
330
2A
100
AcDbProxyObject
 90
      499
 91
      501
 93
      500
310
424CD108121A5919195B90640502408333333333333E3BF0000000000000FB01079024090700405020000000000001110200405405064090740C02480A0340
1001
ACAD
1000
AcDbSavedByObjectVersion
1070
     0
  0
ACAD_PROXY_OBJECT
  5
30
102
{ACAD_REACTORS
330
2A
102
}
330
2A
100
AcDbProxyObject
 90
      499
 91
      501
 93
      436
310
42CCD915DA5C99599C985B595059028333333333333E3BF0000000000000FB0107901411070040501600405405064090741402480A0340
1001
ACAD
1000
AcDbSavedByObjectVersion
1070
     0
  0
ACAD_PROXY_OBJECT
  5
32
102
{ACAD_REACTORS
330
2A
102
}
330
2A
100
AcDbProxyObject
 90
      499
 91
      501
 93
      388
310
4150985CDA58D07406404333333333333E3BF0000000000000FB0107A41107004050150841D405064090741402480A0350
1001
ACAD
1000
AcDbSavedByObjectVersion
1070
     0
  0
ACAD_PROXY_OBJECT
  5
36
102
{ACAD_REACTORS
330
2A
102
}
330
2A
100
AcDbProxyObject
 90
      499
 91
      501
 93
      428
310
42109C9A59DA1D195B90C409028333333333333E3BF0000000000000FB010790141107004050150841D405064090741402480A029950
1001
ACAD
1000
AcDbSavedByObjectVersion
1070
     0
  0
ACAD_PROXY_OBJECT
  5
3A
102
{ACAD_REACTORS
330
2A
102
}
330
2A
100
AcDbProxyObject
 90
      499
 91
      501
 93
      452
310
42D0DBDB1BDC90DA185B99D95104090240C333333333333E3BF0000000000000FB0108901411070040501508421405064090741402480A0350
1001
ACAD
1000
AcDbSavedByObjectVersion
1070
     0
  0
ACAD_PROXY_OBJECT
  5
34
102
{ACAD_REACTORS
330
2A
102
}
330
2A
100
AcDbProxyObject
 90
      499
 91
      501
 93
      500
310
4290DBDB98D95C1D1D585B10940D028333333333333E3BF0000000000000FB0107902409070040501000000000000111010841D405064090740C02480A0340
1001
ACAD
1000
AcDbSavedByObjectVersion
1070
     0
  0
ACAD_PROXY_OBJECT
  5
35
102
{ACAD_REACTORS
330
2A
102
}
330
2A
100
AcDbProxyObject
 90
      499
 91
      501
 93
      412
310
40D11A5B50B409028333333333333E3BF0000000000000FB010790141107004050150841D405064090741402480A02677FFFFFD0
1001
ACAD
1000
AcDbSavedByObjectVersion
1070
     0
  0
ACAD_PROXY_OBJECT
  5
39
102
{ACAD_REACTORS
330
2A
102
}
330
2A
100
AcDbProxyObject
 90
      499
 91
      501
 93
      444
310
42D19858D95C185D1D195C9B90F409028333333333333E3BF0000000000000FB010790141107004050150841D405064090741402480A0350
1001
ACAD
1000
AcDbSavedByObjectVersion
1070
     0
  0
ACAD_PROXY_OBJECT
  5
2B
102
{ACAD_REACTORS
330
2A
102
}
330
2A
100
AcDbProxyObject
 90
      499
 91
      501
 93
      388
310
41119B185D240901404333333333333E3BF0000000000000F9010740A41107004050150841D405064090741402480A1B50
1001
ACAD
1000
AcDbSavedByObjectVersion
1070
     0
  0
ACAD_PROXY_OBJECT
  5
2C
102
{ACAD_REACTORS
330
2A
102
}
330
2A
100
AcDbProxyObject
 90
      499
 91
      501
 93
      476
310
43519B185D15DA5D1A115919D95CD0140901404333333333333E3BF0000000000000F9010740901411070040501600405405064090741402480A1B50
1001
ACAD
1000
AcDbSavedByObjectVersion
1070
     0
  0
ACAD_PROXY_OBJECT
  5
2D
102
{ACAD_REACTORS
330
2A
102
}
330
2A
100
AcDbProxyObject
 90
      499
 91
      501
 93
      412
310
41D1DBDD5C985D5910240902404333333333333E3BF0000000000000F9010740A411070040501641D405064090741402480A1B50
1001
ACAD
1000
AcDbSavedByObjectVersion
1070
     0
  0
ACAD_PROXY_OBJECT
  5
2E
102
{ACAD_REACTORS
330
2A
102
}
330
2A
100
AcDbProxyObject
 90
      499
 91
      501
 93
      500
310
4411DBDD5C985D5915DA5D1A115919D95CD0340902404333333333333E3BF0000000000000F9010740901411070040501600405405064090741402480A1B50
1001
ACAD
1000
AcDbSavedByObjectVersion
1070
     0
  0
ACAD_PROXY_OBJECT
  5
38
102
{ACAD_REACTORS
330
2A
102
}
330
2A
100
AcDbProxyObject
 90
      499
 91
      501
 93
      444
310
42D31A5B995C185D1D195C9B90E409028333333333333E3BF0000000000000FB010790141107004050750841D405064090741402483A0350
1001
ACAD
1000
AcDbSavedByObjectVersion
1070
     0
  0
ACAD_PROXY_OBJECT
  5
33
102
{ACAD_REACTORS
330
2A
102
}
330
2A
100
AcDbProxyObject
 90
      499
 91
      501
 93
      420
310
425499585B1A5CDD1A58D08409028333333333333E3BF0000000000000FB01079019070040501508421405064090741402480A1B40
1001
ACAD
1000
AcDbSavedByObjectVersion
1070
     0
  0
ACAD_PROXY_OBJECT
  5
37
102
{ACAD_REACTORS
330
2A
102
}
330
2A
100
AcDbProxyObject
 90
      499
 91
      501
 93
      412
310
41D51A1A58DAD95B90D409028333333333333E3BF0000000000000FB010790141107004050150C41D405064090741402480A0350
1001
ACAD
1000
AcDbSavedByObjectVersion
1070
     0
  0
XRECORD
  5
A6
102
{ACAD_REACTORS
330
9D
102
}
330
9D
100
AcDbXrecord
 90
        0
  0
XRECORD
  5
BC
102
{ACAD_REACTORS
330
9D
102
}
330
9D
100
AcDbXrecord
1000
DSTYLE
1002
{
1070
   171
 70
     2
1070
   143
 40
25.4
1070
   274
 70
     2
1070
    41
 40
0.18
1070
   141
 40
0.09
1070
   271
 70
     4
1070
    43
 40
0.38
1070
   278
 70
    46
1070
    44
 40
0.18
1070
    42
 40
0.0625
1070
   147
 40
0.09
1070
    77
 70
     0
1070
   272
 70
     4
1070
    73
 70
     1
1070
   172
 70
     0
1070
    74
 70
     1
1070
   283
 70
     1
1070
   340
340
11
1070
   140
 40
0.18
1070
   284
 70
     0
1070
    78
 70
     0
1002
}
  0
XRECORD
  5
A7
102
{ACAD_REACTORS
330
9D
102
}
330
9D
100
AcDbXrecord
  1
{9AB239EA-994D-49E6-9819-A270339C3F0A}
  0
XRECORD
  5
A0
102
{ACAD_REACTORS
330
9D
102
}
330
9D
100
AcDbXrecord
  1

  0
XRECORD
  5
A5
102
{ACAD_REACTORS
330
9D
102
}
330
9D
100
AcDbXrecord
 90
        1
  0
XRECORD
  5
A2
102
{ACAD_REACTORS
330
9D
102
}
330
9D
100
AcDbXrecord
340
1A
  0
XRECORD
  5
A4
102
{ACAD_REACTORS
330
9D
102
}
330
9D
100
AcDbXrecord
 90
    10781
  0
XRECORD
  5
A3
102
{ACAD_REACTORS
330
9D
102
}
330
9D
100
AcDbXrecord
340
19
  0
XRECORD
  5
A9
102
{ACAD_REACTORS
330
9D
102
}
330
9D
100
AcDbXrecord
 40
0.0
  0
XRECORD
  5
AC
102
{ACAD_REACTORS
330
9D
102
}
330
9D
100
AcDbXrecord
340
0
  0
XRECORD
  5
B2
102
{ACAD_REACTORS
330
9D
102
}
330
9D
100
AcDbXrecord
 10
0.0
 20
0.0
 30
0.0
  0
XRECORD
  5
AE
102
{ACAD_REACTORS
330
9D
102
}
330
9D
100
AcDbXrecord
 10
0.0
 20
0.0
 30
0.0
  0
XRECORD
  5
B1
102
{ACAD_REACTORS
330
9D
102
}
330
9D
100
AcDbXrecord
 10
0.0
 20
0.0
 30
0.0
  0
XRECORD
  5
AF
102
{ACAD_REACTORS
330
9D
102
}
330
9D
100
AcDbXrecord
 10
0.0
 20
0.0
 30
0.0
  0
XRECORD
  5
B0
102
{ACAD_REACTORS
330
9D
102
}
330
9D
100
AcDbXrecord
 10
0.0
 20
0.0
 30
0.0
  0
XRECORD
  5
AD
102
{ACAD_REACTORS
330
9D
102
}
330
9D
100
AcDbXrecord
 10
0.0
 20
0.0
 30
0.0
  0
XRECORD
  5
AA
102
{ACAD_REACTORS
330
9D
102
}
330
9D
100
AcDbXrecord
340
0
  0
XRECORD
  5
AB
102
{ACAD_REACTORS
330
9D
102
}
330
9D
100
AcDbXrecord
 70
     0
  0
XRECORD
  5
A1
102
{ACAD_REACTORS
330
9D
102
}
330
9D
100
AcDbXrecord
  1

  0
XRECORD
  5
9E
102
{ACAD_REACTORS
330
9D
102
}
330
9D
100
AcDbXrecord
 90
        1
  0
XRECORD
  5
9F
102
{ACAD_REACTORS
330
9D
102
}
330
9D
100
AcDbXrecord
 90
       70
  0
XRECORD
  5
B5
102
{ACAD_REACTORS
330
9D
102
}
330
9D
100
AcDbXrecord
340
0
  0
XRECORD
  5
BB
102
{ACAD_REACTORS
330
9D
102
}
330
9D
100
AcDbXrecord
 10
0.0
 20
0.0
 30
0.0
  0
XRECORD
  5
B7
102
{ACAD_REACTORS
330
9D
102
}
330
9D
100
AcDbXrecord
 10
0.0
 20
0.0
 30
0.0
  0
XRECORD
  5
BA
102
{ACAD_REACTORS
330
9D
102
}
330
9D
100
AcDbXrecord
 10
0.0
 20
0.0
 30
0.0
  0
XRECORD
  5
B8
102
{ACAD_REACTORS
330
9D
102
}
330
9D
100
AcDbXrecord
 10
0.0
 20
0.0
 30
0.0
  0
XRECORD
  5
B9
102
{ACAD_REACTORS
330
9D
102
}
330
9D
100
AcDbXrecord
 10
0.0
 20
0.0
 30
0.0
  0
XRECORD
  5
B6
102
{ACAD_REACTORS
330
9D
102
}
330
9D
100
AcDbXrecord
 10
0.0
 20
0.0
 30
0.0
  0
XRECORD
  5
B3
102
{ACAD_REACTORS
330
9D
102
}
330
9D
100
AcDbXrecord
340
0
  0
XRECORD
  5
B4
102
{ACAD_REACTORS
330
9D
102
}
330
9D
100
AcDbXrecord
 70
     0
  0
XRECORD
  5
A8
102
{ACAD_REACTORS
330
9D
102
}
330
9D
100
AcDbXrecord
  1
{FAEB1C32-E019-11D5-929B-00C0DF256EC4}
  0
DICTIONARYVAR
  5
C0
102
{ACAD_REACTORS
330
BD
102
}
330
BD
100
DictionaryVariables
280
     0
  1
2
  0
DICTIONARYVAR
  5
C1
102
{ACAD_REACTORS
330
BD
102
}
330
BD
100
DictionaryVariables
280
     0
  1
1
  0
DICTIONARY
  5
C4
330
3D
100
AcDbDictionary
280
     1
  3
ACAD_XREC_ROUNDTRIP
360
C5
  0
DICTIONARY
  5
C2
330
3C
100
AcDbDictionary
280
     1
  3
ACAD_XREC_ROUNDTRIP
360
C3
  0
DICTIONARY
  5
C6
330
3E
100
AcDbDictionary
280
     1
  3
ACAD_XREC_ROUNDTRIP
360
C7
  0
XRECORD
  5
C5
102
{ACAD_REACTORS
330
C4
102
}
330
C4
100
AcDbXrecord
102
MATERIAL
148
0.0
149
0.0
149
0.0
 93
        0
 94
      127
282
     0
 72
     1
 77
     1
171
     1
175
     1
179
     1
273
     0
  0
XRECORD
  5
C3
102
{ACAD_REACTORS
330
C2
102
}
330
C2
100
AcDbXrecord
102
MATERIAL
148
0.0
149
0.0
149
0.0
 93
        0
 94
      127
282
     0
 72
     1
 77
     1
171
     1
175
     1
179
     1
273
     0
  0
XRECORD
  5
C7
102
{ACAD_REACTORS
330
C6
102
}
330
C6
100
AcDbXrecord
102
MATERIAL
148
0.0
149
0.0
149
0.0
 93
        0
 94
      127
282
     0
 72
     1
 77
     1
171
     1
175
     1
179
     1
273
     0
  0
ENDSEC
  0
EOF
