  0
SECTION
  2
HEADER
  9
$ACADVER
  1
AC1009
  9
$LIMMIN
 10
-0.000000
 20
-0.000000
  9
$LIMMAX
 10
700.000000
 20
500.000000
  0
ENDSEC
  0
SECTION
  2
TABLES
  0
TABLE
  2
LTYPE
 70
     4
  0
LTYPE
  2
CONTINUOUS
 70
     0
  3
Solid line
 72
     65
 73
     0
 40
0.000000
  0
LTYPE
  2
HIDDEN
 70
     0
  3
 _ _ _ _ _ _ _ _ _ _ _
 72
     65
 73
     2
 40
0.375000
 49
0.250000
 49
-0.125000
  0
LTYPE
  2
DASHED
 70
     0
  3
 ___ ___ ___ ___ ___ ___ ___ 
 72
     65
 73
     2
 40
0.750000
 49
0.500000
 49
-0.250000
  0
LTYPE
  2
CENTER
 70
     0
  3
___ _ ___ _ ___ _ ___
 72
     65
 73
     4
 40
2.000000
 49
1.250000
 49
-0.250000
 49
0.250000
 49
-0.250000
  0
LTYPE
  2
BORDER
 70
     0
  3
___ ___ . ___ ___ . ___ ___
 72
     65
 73
     6
 40
1.750000
 49
0.500000
 49
-0.250000
 49
0.500000
 49
-0.250000
 49
0.000000
 49
-0.250000
  0
LTYPE
  2
DOT
 70
     0
  3
.................
 72
     65
 73
     2
 40
0.250000
 49
0.000000
 49
-0.250000
  0
LTYPE
  2
DASHDOT
 70
     0
  3
__ . __ . __ . __
 72
     65
 73
     4
 40
1.000000
 49
0.500000
 49
-0.250000
 49
0.000000
 49
-0.250000
  0
LTYPE
  2
DIVIDE
 70
     0
  3
___ .. ___ .. ___ .. ___
 72
     65
 73
     6
 40
1.250000
 49
0.500000
 49
-0.250000
 49
0.000000
 49
-0.250000
 49
0.000000
 49
-0.250000
  0
ENDTAB
  0
TABLE
  2
LAYER
 70
     8
  0
LAYER
  2
BLACK
 70
     0
 62
     1
  6
CONTINUOUS
  0
LAYER
  2
WHITE
 70
     0
 62
     7
  6
CONTINUOUS
  0
LAYER
  2
RED
 70
     0
 62
     1
  6
CONTINUOUS
  0
LAYER
  2
YELLOW
 70
     0
 62
     2
  6
CONTINUOUS
  0
LAYER
  2
GREEN
 70
     0
 62
     3
  6
CONTINUOUS
  0
LAYER
  2
CYAN
 70
     0
 62
     4
  6
CONTINUOUS
  0
LAYER
  2
BLUE
 70
     0
 62
     5
  6
CONTINUOUS
  0
LAYER
  2
MAGENTA
 70
     0
 62
     6
  6
CONTINUOUS
  0
ENDTAB
  0
TABLE
  2
APPID
 70
     1
  0
APPID
  2
TC_BEND_DATA
 70
     0
  0
ENDTAB
  0
ENDSEC
  0
SECTION
  2
BLOCKS
  0
ENDSEC
  0
SECTION
  2
ENTITIES
  0
LINE
  8
WHITE
 10
10.000000
 20
0.000000
 30
0.000000
 11
690.000000
 21
0.000000
 31
0.000000
  6
CONTINUOUS
  0
ARC
  8
WHITE
 10
690.000007
 20
9.999993
 30
0.000000
 40
9.999993
 50
-90.000043
 51
0.000043
  6
CONTINUOUS
  0
LINE
  8
WHITE
 10
700.000000
 20
10.000000
 30
0.000000
 11
700.000000
 21
490.000000
 31
0.000000
  6
CONTINUOUS
  0
ARC
  8
WHITE
 10
690.000007
 20
490.000007
 30
0.000000
 40
9.999993
 50
-0.000043
 51
90.000043
  6
CONTINUOUS
  0
LINE
  8
WHITE
 10
690.000000
 20
500.000000
 30
0.000000
 11
10.000000
 21
500.000000
 31
0.000000
  6
CONTINUOUS
  0
ARC
  8
WHITE
 10
9.999993
 20
490.000007
 30
0.000000
 40
9.999993
 50
89.999957
 51
180.000043
  6
CONTINUOUS
  0
LINE
  8
WHITE
 10
0.000000
 20
490.000000
 30
0.000000
 11
0.000000
 21
10.000000
 31
0.000000
  6
CONTINUOUS
  0
ARC
  8
WHITE
 10
9.999993
 20
9.999993
 30
0.000000
 40
9.999993
 50
179.999957
 51
270.000043
  6
CONTINUOUS
  0
LINE
  8
WHITE
 10
380.300180
 20
100.100000
 30
0.000000
 11
410.500200
 21
101.690000
 31
0.000000
  6
CONTINUOUS
  0
LINE
  8
WHITE
 10
410.500200
 20
101.690000
 30
0.000000
 11
466.780200
 21
110.460000
 31
0.000000
  6
CONTINUOUS
  0
LINE
  8
WHITE
 10
466.780200
 20
110.460000
 30
0.000000
 11
517.710000
 21
124.480000
 31
0.000000
  6
CONTINUOUS
  0
LINE
  8
WHITE
 10
517.710000
 20
124.480000
 30
0.000000
 11
562.150000
 21
142.940000
 31
0.000000
  6
CONTINUOUS
  0
LINE
  8
WHITE
 10
562.150000
 20
142.940000
 30
0.000000
 11
598.730000
 21
165.500100
 31
0.000000
  6
CONTINUOUS
  0
LINE
  8
WHITE
 10
598.730000
 20
165.500100
 30
0.000000
 11
626.410000
 21
191.250100
 31
0.000000
  6
CONTINUOUS
  0
LINE
  8
WHITE
 10
626.410000
 20
191.250100
 30
0.000000
 11
643.840000
 21
219.730100
 31
0.000000
  6
CONTINUOUS
  0
LINE
  8
WHITE
 10
643.840000
 20
219.730100
 30
0.000000
 11
650.000000
 21
250.270128
 31
0.000000
  6
CONTINUOUS
  0
LINE
  8
WHITE
 10
650.000000
 20
250.270128
 30
0.000000
 11
643.840000
 21
280.800100
 31
0.000000
  6
CONTINUOUS
  0
LINE
  8
WHITE
 10
643.840000
 20
280.800100
 30
0.000000
 11
626.410000
 21
309.280100
 31
0.000000
  6
CONTINUOUS
  0
LINE
  8
WHITE
 10
626.410000
 20
309.280100
 30
0.000000
 11
598.730000
 21
335.040100
 31
0.000000
  6
CONTINUOUS
  0
LINE
  8
WHITE
 10
598.730000
 20
335.040100
 30
0.000000
 11
562.150000
 21
357.590000
 31
0.000000
  6
CONTINUOUS
  0
LINE
  8
WHITE
 10
562.150000
 20
357.590000
 30
0.000000
 11
517.710000
 21
376.050000
 31
0.000000
  6
CONTINUOUS
  0
LINE
  8
WHITE
 10
517.710000
 20
376.050000
 30
0.000000
 11
466.780200
 21
390.070000
 31
0.000000
  6
CONTINUOUS
  0
LINE
  8
WHITE
 10
466.780200
 20
390.070000
 30
0.000000
 11
410.500200
 21
398.840000
 31
0.000000
  6
CONTINUOUS
  0
LINE
  8
WHITE
 10
410.500200
 20
398.840000
 30
0.000000
 11
350.110200
 21
402.030000
 31
0.000000
  6
CONTINUOUS
  0
LINE
  8
WHITE
 10
350.110200
 20
402.030000
 30
0.000000
 11
289.730200
 21
398.840000
 31
0.000000
  6
CONTINUOUS
  0
LINE
  8
WHITE
 10
289.730200
 20
398.840000
 30
0.000000
 11
233.440000
 21
390.070000
 31
0.000000
  6
CONTINUOUS
  0
LINE
  8
WHITE
 10
233.440000
 20
390.070000
 30
0.000000
 11
182.510000
 21
376.050000
 31
0.000000
  6
CONTINUOUS
  0
LINE
  8
WHITE
 10
182.510000
 20
376.050000
 30
0.000000
 11
138.190000
 21
357.590000
 31
0.000000
  6
CONTINUOUS
  0
LINE
  8
WHITE
 10
138.190000
 20
357.590000
 30
0.000000
 11
101.500000
 21
335.040100
 31
0.000000
  6
CONTINUOUS
  0
LINE
  8
WHITE
 10
101.500000
 20
335.040100
 30
0.000000
 11
73.810000
 21
309.280100
 31
0.000000
  6
CONTINUOUS
  0
LINE
  8
WHITE
 10
73.810000
 20
309.280100
 30
0.000000
 11
56.380000
 21
280.800100
 31
0.000000
  6
CONTINUOUS
  0
LINE
  8
WHITE
 10
56.380000
 20
280.800100
 30
0.000000
 11
50.230000
 21
250.270128
 31
0.000000
  6
CONTINUOUS
  0
LINE
  8
WHITE
 10
50.230000
 20
250.270128
 30
0.000000
 11
56.380000
 21
219.730100
 31
0.000000
  6
CONTINUOUS
  0
LINE
  8
WHITE
 10
56.380000
 20
219.730100
 30
0.000000
 11
73.810000
 21
191.250100
 31
0.000000
  6
CONTINUOUS
  0
LINE
  8
WHITE
 10
73.810000
 20
191.250100
 30
0.000000
 11
101.500000
 21
165.500100
 31
0.000000
  6
CONTINUOUS
  0
LINE
  8
WHITE
 10
101.500000
 20
165.500100
 30
0.000000
 11
138.190000
 21
142.940000
 31
0.000000
  6
CONTINUOUS
  0
LINE
  8
WHITE
 10
138.190000
 20
142.940000
 30
0.000000
 11
182.510000
 21
124.480000
 31
0.000000
  6
CONTINUOUS
  0
LINE
  8
WHITE
 10
182.510000
 20
124.480000
 30
0.000000
 11
233.440000
 21
110.460000
 31
0.000000
  6
CONTINUOUS
  0
LINE
  8
WHITE
 10
233.440000
 20
110.460000
 30
0.000000
 11
289.730200
 21
101.690000
 31
0.000000
  6
CONTINUOUS
  0
LINE
  8
WHITE
 10
289.730200
 20
101.690000
 30
0.000000
 11
350.110200
 21
98.500000
 31
0.000000
  6
CONTINUOUS
  0
LINE
  8
WHITE
 10
350.110200
 20
98.500000
 30
0.000000
 11
380.300180
 21
100.100000
 31
0.000000
  6
CONTINUOUS
  0
LINE
  8
WHITE
 10
360.590180
 20
325.580100
 30
0.000000
 11
350.800200
 21
318.760100
 31
0.000000
  6
CONTINUOUS
  0
LINE
  8
WHITE
 10
350.800200
 20
318.760100
 30
0.000000
 11
348.180200
 21
319.200100
 31
0.000000
  6
CONTINUOUS
  0
LINE
  8
WHITE
 10
348.180200
 20
319.200100
 30
0.000000
 11
342.420200
 21
318.290100
 31
0.000000
  6
CONTINUOUS
  0
LINE
  8
WHITE
 10
342.420200
 20
318.290100
 30
0.000000
 11
336.670200
 21
317.370100
 31
0.000000
  6
CONTINUOUS
  0
LINE
  8
WHITE
 10
336.670200
 20
317.370100
 30
0.000000
 11
329.600200
 21
309.060100
 31
0.000000
  6
CONTINUOUS
  0
LINE
  8
WHITE
 10
329.600200
 20
309.060100
 30
0.000000
 11
322.200200
 21
287.980100
 31
0.000000
  6
CONTINUOUS
  0
LINE
  8
WHITE
 10
322.200200
 20
287.980100
 30
0.000000
 11
319.350200
 21
283.650100
 31
0.000000
  6
CONTINUOUS
  0
LINE
  8
WHITE
 10
319.350200
 20
283.650100
 30
0.000000
 11
318.440200
 21
278.860100
 31
0.000000
  6
CONTINUOUS
  0
LINE
  8
WHITE
 10
318.440200
 20
278.860100
 30
0.000000
 11
323.110200
 21
272.250100
 31
0.000000
  6
CONTINUOUS
  0
LINE
  8
WHITE
 10
323.110200
 20
272.250100
 30
0.000000
 11
324.820200
 21
265.760100
 31
0.000000
  6
CONTINUOUS
  0
LINE
  8
WHITE
 10
324.820200
 20
265.760100
 30
0.000000
 11
333.140200
 21
259.720130
 31
0.000000
  6
CONTINUOUS
  0
LINE
  8
WHITE
 10
333.140200
 20
259.720130
 30
0.000000
 11
343.280200
 21
256.990130
 31
0.000000
  6
CONTINUOUS
  0
LINE
  8
WHITE
 10
343.280200
 20
256.990130
 30
0.000000
 11
350.000200
 21
258.130130
 31
0.000000
  6
CONTINUOUS
  0
LINE
  8
WHITE
 10
350.000200
 20
258.130130
 30
0.000000
 11
356.150200
 21
261.880100
 31
0.000000
  6
CONTINUOUS
  0
LINE
  8
WHITE
 10
356.150200
 20
261.880100
 30
0.000000
 11
362.410180
 21
259.260130
 31
0.000000
  6
CONTINUOUS
  0
LINE
  8
WHITE
 10
362.410180
 20
259.260130
 30
0.000000
 11
362.760180
 21
253.340130
 31
0.000000
  6
CONTINUOUS
  0
LINE
  8
WHITE
 10
362.760180
 20
253.340130
 30
0.000000
 11
368.910180
 21
236.480100
 31
0.000000
  6
CONTINUOUS
  0
LINE
  8
WHITE
 10
368.910180
 20
236.480100
 30
0.000000
 11
370.390179
 21
229.530100
 31
0.000000
  6
CONTINUOUS
  0
LINE
  8
WHITE
 10
370.390179
 20
229.530100
 30
0.000000
 11
369.250180
 21
222.460100
 31
0.000000
  6
CONTINUOUS
  0
LINE
  8
WHITE
 10
369.250180
 20
222.460100
 30
0.000000
 11
366.860180
 21
211.870100
 31
0.000000
  6
CONTINUOUS
  0
LINE
  8
WHITE
 10
366.860180
 20
211.870100
 30
0.000000
 11
371.300179
 21
202.870100
 31
0.000000
  6
CONTINUOUS
  0
LINE
  8
WHITE
 10
371.300179
 20
202.870100
 30
0.000000
 11
373.920180
 21
185.890100
 31
0.000000
  6
CONTINUOUS
  0
LINE
  8
WHITE
 10
373.920180
 20
185.890100
 30
0.000000
 11
379.390180
 21
179.850100
 31
0.000000
  6
CONTINUOUS
  0
LINE
  8
WHITE
 10
379.390180
 20
179.850100
 30
0.000000
 11
387.600200
 21
178.600100
 31
0.000000
  6
CONTINUOUS
  0
LINE
  8
WHITE
 10
387.600200
 20
178.600100
 30
0.000000
 11
388.170200
 21
180.190100
 31
0.000000
  6
CONTINUOUS
  0
LINE
  8
WHITE
 10
388.170200
 20
180.190100
 30
0.000000
 11
391.240200
 21
181.560100
 31
0.000000
  6
CONTINUOUS
  0
LINE
  8
WHITE
 10
391.240200
 20
181.560100
 30
0.000000
 11
401.040200
 21
189.540100
 31
0.000000
  6
CONTINUOUS
  0
LINE
  8
WHITE
 10
401.040200
 20
189.540100
 30
0.000000
 11
405.140200
 21
195.690100
 31
0.000000
  6
CONTINUOUS
  0
LINE
  8
WHITE
 10
405.140200
 20
195.690100
 30
0.000000
 11
405.830200
 21
200.700100
 31
0.000000
  6
CONTINUOUS
  0
LINE
  8
WHITE
 10
405.830200
 20
200.700100
 30
0.000000
 11
408.220200
 21
206.060100
 31
0.000000
  6
CONTINUOUS
  0
LINE
  8
WHITE
 10
408.220200
 20
206.060100
 30
0.000000
 11
415.630200
 21
214.030100
 31
0.000000
  6
CONTINUOUS
  0
LINE
  8
WHITE
 10
415.630200
 20
214.030100
 30
0.000000
 11
416.540200
 21
228.280100
 31
0.000000
  6
CONTINUOUS
  0
LINE
  8
WHITE
 10
416.540200
 20
228.280100
 30
0.000000
 11
415.630200
 21
231.920100
 31
0.000000
  6
CONTINUOUS
  0
LINE
  8
WHITE
 10
415.630200
 20
231.920100
 30
0.000000
 11
415.170200
 21
240.020130
 31
0.000000
  6
CONTINUOUS
  0
LINE
  8
WHITE
 10
415.170200
 20
240.020130
 30
0.000000
 11
418.360200
 21
241.840130
 31
0.000000
  6
CONTINUOUS
  0
LINE
  8
WHITE
 10
418.360200
 20
241.840130
 30
0.000000
 11
427.590200
 21
253.450130
 31
0.000000
  6
CONTINUOUS
  0
LINE
  8
WHITE
 10
427.590200
 20
253.450130
 30
0.000000
 11
433.280200
 21
262.230100
 31
0.000000
  6
CONTINUOUS
  0
LINE
  8
WHITE
 10
433.280200
 20
262.230100
 30
0.000000
 11
434.200200
 21
264.740100
 31
0.000000
  6
CONTINUOUS
  0
LINE
  8
WHITE
 10
434.200200
 20
264.740100
 30
0.000000
 11
437.960200
 21
272.480100
 31
0.000000
  6
CONTINUOUS
  0
LINE
  8
WHITE
 10
437.960200
 20
272.480100
 30
0.000000
 11
431.350200
 21
274.420100
 31
0.000000
  6
CONTINUOUS
  0
LINE
  8
WHITE
 10
431.350200
 20
274.420100
 30
0.000000
 11
423.710200
 21
279.090100
 31
0.000000
  6
CONTINUOUS
  0
LINE
  8
WHITE
 10
423.710200
 20
279.090100
 30
0.000000
 11
416.310200
 21
284.790100
 31
0.000000
  6
CONTINUOUS
  0
LINE
  8
WHITE
 10
416.310200
 20
284.790100
 30
0.000000
 11
411.180200
 21
292.190100
 31
0.000000
  6
CONTINUOUS
  0
LINE
  8
WHITE
 10
411.180200
 20
292.190100
 30
0.000000
 11
405.030200
 21
301.880100
 31
0.000000
  6
CONTINUOUS
  0
LINE
  8
WHITE
 10
405.030200
 20
301.880100
 30
0.000000
 11
402.520200
 21
304.270100
 31
0.000000
  6
CONTINUOUS
  0
LINE
  8
WHITE
 10
402.520200
 20
304.270100
 30
0.000000
 11
404.680200
 21
304.840100
 31
0.000000
  6
CONTINUOUS
  0
LINE
  8
WHITE
 10
404.680200
 20
304.840100
 30
0.000000
 11
401.950200
 21
315.320100
 31
0.000000
  6
CONTINUOUS
  0
LINE
  8
WHITE
 10
401.950200
 20
315.320100
 30
0.000000
 11
392.500200
 21
313.960100
 31
0.000000
  6
CONTINUOUS
  0
LINE
  8
WHITE
 10
392.500200
 20
313.960100
 30
0.000000
 11
382.580200
 21
315.100100
 31
0.000000
  6
CONTINUOUS
  0
LINE
  8
WHITE
 10
382.580200
 20
315.100100
 30
0.000000
 11
382.470200
 21
313.270100
 31
0.000000
  6
CONTINUOUS
  0
LINE
  8
WHITE
 10
382.470200
 20
313.270100
 30
0.000000
 11
379.510180
 21
314.530100
 31
0.000000
  6
CONTINUOUS
  0
LINE
  8
WHITE
 10
379.510180
 20
314.530100
 30
0.000000
 11
372.670180
 21
315.440100
 31
0.000000
  6
CONTINUOUS
  0
LINE
  8
WHITE
 10
372.670180
 20
315.440100
 30
0.000000
 11
372.440180
 21
318.050100
 31
0.000000
  6
CONTINUOUS
  0
LINE
  8
WHITE
 10
372.440180
 20
318.050100
 30
0.000000
 11
370.160179
 21
321.480100
 31
0.000000
  6
CONTINUOUS
  0
LINE
  8
WHITE
 10
370.160179
 20
321.480100
 30
0.000000
 11
365.380180
 21
325.690100
 31
0.000000
  6
CONTINUOUS
  0
LINE
  8
WHITE
 10
365.380180
 20
325.690100
 30
0.000000
 11
360.590180
 21
325.580100
 31
0.000000
  6
CONTINUOUS
  0
LINE
  8
WHITE
 10
586.080000
 20
222.640100
 30
0.000000
 11
583.570000
 21
219.050100
 31
0.000000
  6
CONTINUOUS
  0
LINE
  8
WHITE
 10
583.570000
 20
219.050100
 30
0.000000
 11
579.810000
 21
214.830100
 31
0.000000
  6
CONTINUOUS
  0
LINE
  8
WHITE
 10
579.810000
 20
214.830100
 30
0.000000
 11
577.760000
 21
217.110100
 31
0.000000
  6
CONTINUOUS
  0
LINE
  8
WHITE
 10
577.760000
 20
217.110100
 30
0.000000
 11
573.430000
 21
224.290100
 31
0.000000
  6
CONTINUOUS
  0
LINE
  8
WHITE
 10
573.430000
 20
224.290100
 30
0.000000
 11
568.870000
 21
222.460100
 31
0.000000
  6
CONTINUOUS
  0
LINE
  8
WHITE
 10
568.870000
 20
222.460100
 30
0.000000
 11
556.570000
 21
215.510100
 31
0.000000
  6
CONTINUOUS
  0
LINE
  8
WHITE
 10
556.570000
 20
215.510100
 30
0.000000
 11
554.630000
 21
213.810100
 31
0.000000
  6
CONTINUOUS
  0
LINE
  8
WHITE
 10
554.630000
 20
213.810100
 30
0.000000
 11
535.490000
 21
203.670100
 31
0.000000
  6
CONTINUOUS
  0
LINE
  8
WHITE
 10
535.490000
 20
203.670100
 30
0.000000
 11
529.560000
 21
199.450100
 31
0.000000
  6
CONTINUOUS
  0
LINE
  8
WHITE
 10
529.560000
 20
199.450100
 30
0.000000
 11
529.680000
 21
193.520100
 31
0.000000
  6
CONTINUOUS
  0
LINE
  8
WHITE
 10
529.680000
 20
193.520100
 30
0.000000
 11
528.770000
 21
191.360100
 31
0.000000
  6
CONTINUOUS
  0
LINE
  8
WHITE
 10
528.770000
 20
191.360100
 30
0.000000
 11
525.120000
 21
185.660100
 31
0.000000
  6
CONTINUOUS
  0
LINE
  8
WHITE
 10
525.120000
 20
185.660100
 30
0.000000
 11
525.570000
 21
182.130100
 31
0.000000
  6
CONTINUOUS
  0
LINE
  8
WHITE
 10
525.570000
 20
182.130100
 30
0.000000
 11
534.920000
 21
181.450100
 31
0.000000
  6
CONTINUOUS
  0
LINE
  8
WHITE
 10
534.920000
 20
181.450100
 30
0.000000
 11
547.000000
 21
185.320100
 31
0.000000
  6
CONTINUOUS
  0
LINE
  8
WHITE
 10
547.000000
 20
185.320100
 30
0.000000
 11
550.640000
 21
182.130100
 31
0.000000
  6
CONTINUOUS
  0
LINE
  8
WHITE
 10
550.640000
 20
182.130100
 30
0.000000
 11
555.200000
 21
175.300100
 31
0.000000
  6
CONTINUOUS
  0
LINE
  8
WHITE
 10
555.200000
 20
175.300100
 30
0.000000
 11
561.470000
 21
171.420100
 31
0.000000
  6
CONTINUOUS
  0
LINE
  8
WHITE
 10
561.470000
 20
171.420100
 30
0.000000
 11
564.880000
 21
174.610100
 31
0.000000
  6
CONTINUOUS
  0
LINE
  8
WHITE
 10
564.880000
 20
174.610100
 30
0.000000
 11
583.460000
 21
186.120100
 31
0.000000
  6
CONTINUOUS
  0
LINE
  8
WHITE
 10
583.460000
 20
186.120100
 30
0.000000
 11
590.070000
 21
195.810100
 31
0.000000
  6
CONTINUOUS
  0
LINE
  8
WHITE
 10
590.070000
 20
195.810100
 30
0.000000
 11
590.640000
 21
209.480100
 31
0.000000
  6
CONTINUOUS
  0
LINE
  8
WHITE
 10
590.640000
 20
209.480100
 30
0.000000
 11
588.580000
 21
226.230100
 31
0.000000
  6
CONTINUOUS
  0
LINE
  8
WHITE
 10
588.580000
 20
226.230100
 30
0.000000
 11
586.080000
 21
222.640100
 31
0.000000
  6
CONTINUOUS
  0
LINE
  8
WHITE
 10
545.350000
 20
260.860100
 30
0.000000
 11
547.000000
 21
264.050100
 31
0.000000
  6
CONTINUOUS
  0
LINE
  8
WHITE
 10
547.000000
 20
264.050100
 30
0.000000
 11
550.760000
 21
262.340100
 31
0.000000
  6
CONTINUOUS
  0
LINE
  8
WHITE
 10
550.760000
 20
262.340100
 30
0.000000
 11
552.010000
 21
257.670130
 31
0.000000
  6
CONTINUOUS
  0
LINE
  8
WHITE
 10
552.010000
 20
257.670130
 30
0.000000
 11
553.150000
 21
259.950100
 31
0.000000
  6
CONTINUOUS
  0
LINE
  8
WHITE
 10
553.150000
 20
259.950100
 30
0.000000
 11
555.540000
 21
254.820130
 31
0.000000
  6
CONTINUOUS
  0
LINE
  8
WHITE
 10
555.540000
 20
254.820130
 30
0.000000
 11
555.660000
 21
241.720130
 31
0.000000
  6
CONTINUOUS
  0
LINE
  8
WHITE
 10
555.660000
 20
241.720130
 30
0.000000
 11
552.920000
 21
238.650100
 31
0.000000
  6
CONTINUOUS
  0
LINE
  8
WHITE
 10
552.920000
 20
238.650100
 30
0.000000
 11
549.620000
 21
238.760100
 31
0.000000
  6
CONTINUOUS
  0
LINE
  8
WHITE
 10
549.620000
 20
238.760100
 30
0.000000
 11
548.480000
 21
243.430130
 31
0.000000
  6
CONTINUOUS
  0
LINE
  8
WHITE
 10
548.480000
 20
243.430130
 30
0.000000
 11
545.510000
 21
242.410130
 31
0.000000
  6
CONTINUOUS
  0
LINE
  8
WHITE
 10
545.510000
 20
242.410130
 30
0.000000
 11
542.330000
 21
242.060130
 31
0.000000
  6
CONTINUOUS
  0
LINE
  8
WHITE
 10
542.330000
 20
242.060130
 30
0.000000
 11
532.180000
 21
247.420130
 31
0.000000
  6
CONTINUOUS
  0
LINE
  8
WHITE
 10
532.180000
 20
247.420130
 30
0.000000
 11
532.870000
 21
249.240128
 31
0.000000
  6
CONTINUOUS
  0
LINE
  8
WHITE
 10
532.870000
 20
249.240128
 30
0.000000
 11
541.410000
 21
255.620130
 31
0.000000
  6
CONTINUOUS
  0
LINE
  8
WHITE
 10
541.410000
 20
255.620130
 30
0.000000
 11
541.530000
 21
257.220130
 31
0.000000
  6
CONTINUOUS
  0
LINE
  8
WHITE
 10
541.530000
 20
257.220130
 30
0.000000
 11
543.690000
 21
257.670130
 31
0.000000
  6
CONTINUOUS
  0
LINE
  8
WHITE
 10
543.690000
 20
257.670130
 30
0.000000
 11
545.350000
 21
260.860100
 31
0.000000
  6
CONTINUOUS
  0
LINE
  8
WHITE
 10
432.370200
 20
221.780100
 30
0.000000
 11
430.210200
 21
222.240100
 31
0.000000
  6
CONTINUOUS
  0
LINE
  8
WHITE
 10
430.210200
 20
222.240100
 30
0.000000
 11
427.250200
 21
218.250100
 31
0.000000
  6
CONTINUOUS
  0
LINE
  8
WHITE
 10
427.250200
 20
218.250100
 30
0.000000
 11
422.460200
 21
217.340100
 31
0.000000
  6
CONTINUOUS
  0
LINE
  8
WHITE
 10
422.460200
 20
217.340100
 30
0.000000
 11
419.840200
 21
210.500100
 31
0.000000
  6
CONTINUOUS
  0
LINE
  8
WHITE
 10
419.840200
 20
210.500100
 30
0.000000
 11
419.500200
 21
207.990100
 31
0.000000
  6
CONTINUOUS
  0
LINE
  8
WHITE
 10
419.500200
 20
207.990100
 30
0.000000
 11
417.330200
 21
201.160100
 31
0.000000
  6
CONTINUOUS
  0
LINE
  8
WHITE
 10
417.330200
 20
201.160100
 30
0.000000
 11
421.090200
 21
195.010100
 31
0.000000
  6
CONTINUOUS
  0
LINE
  8
WHITE
 10
421.090200
 20
195.010100
 30
0.000000
 11
424.280200
 21
195.230100
 31
0.000000
  6
CONTINUOUS
  0
LINE
  8
WHITE
 10
424.280200
 20
195.230100
 30
0.000000
 11
425.880200
 21
198.430100
 31
0.000000
  6
CONTINUOUS
  0
LINE
  8
WHITE
 10
425.880200
 20
198.430100
 30
0.000000
 11
430.890200
 21
210.620100
 31
0.000000
  6
CONTINUOUS
  0
LINE
  8
WHITE
 10
430.890200
 20
210.620100
 30
0.000000
 11
432.940200
 21
212.330100
 31
0.000000
  6
CONTINUOUS
  0
LINE
  8
WHITE
 10
432.940200
 20
212.330100
 30
0.000000
 11
432.370200
 21
222.240100
 31
0.000000
  6
CONTINUOUS
  0
LINE
  8
WHITE
 10
432.370200
 20
222.240100
 30
0.000000
 11
432.370200
 21
221.780100
 31
0.000000
  6
CONTINUOUS
  0
LINE
  8
WHITE
 10
578.100000
 20
246.850130
 30
0.000000
 11
574.340000
 21
243.770130
 31
0.000000
  6
CONTINUOUS
  0
LINE
  8
WHITE
 10
574.340000
 20
243.770130
 30
0.000000
 11
575.480000
 21
240.240130
 31
0.000000
  6
CONTINUOUS
  0
LINE
  8
WHITE
 10
575.480000
 20
240.240130
 30
0.000000
 11
579.130000
 21
239.900130
 31
0.000000
  6
CONTINUOUS
  0
LINE
  8
WHITE
 10
579.130000
 20
239.900130
 30
0.000000
 11
581.630000
 21
234.320100
 31
0.000000
  6
CONTINUOUS
  0
LINE
  8
WHITE
 10
581.630000
 20
234.320100
 30
0.000000
 11
588.010000
 21
233.180100
 31
0.000000
  6
CONTINUOUS
  0
LINE
  8
WHITE
 10
588.010000
 20
233.180100
 30
0.000000
 11
590.520000
 21
230.780100
 31
0.000000
  6
CONTINUOUS
  0
LINE
  8
WHITE
 10
590.520000
 20
230.780100
 30
0.000000
 11
593.480000
 21
229.300100
 31
0.000000
  6
CONTINUOUS
  0
LINE
  8
WHITE
 10
593.480000
 20
229.300100
 30
0.000000
 11
594.050000
 21
232.840100
 31
0.000000
  6
CONTINUOUS
  0
LINE
  8
WHITE
 10
594.050000
 20
232.840100
 30
0.000000
 11
593.140000
 21
232.840100
 31
0.000000
  6
CONTINUOUS
  0
LINE
  8
WHITE
 10
593.140000
 20
232.840100
 30
0.000000
 11
592.800000
 21
237.620100
 31
0.000000
  6
CONTINUOUS
  0
LINE
  8
WHITE
 10
592.800000
 20
237.620100
 30
0.000000
 11
585.730000
 21
244.340130
 31
0.000000
  6
CONTINUOUS
  0
LINE
  8
WHITE
 10
585.730000
 20
244.340130
 30
0.000000
 11
578.100000
 21
246.850130
 31
0.000000
  6
CONTINUOUS
  0
LINE
  8
WHITE
 10
519.420000
 20
250.950130
 30
0.000000
 11
517.260000
 21
251.970130
 31
0.000000
  6
CONTINUOUS
  0
LINE
  8
WHITE
 10
517.260000
 20
251.970130
 30
0.000000
 11
516.230000
 21
249.010128
 31
0.000000
  6
CONTINUOUS
  0
LINE
  8
WHITE
 10
516.230000
 20
249.010128
 30
0.000000
 11
521.360000
 21
240.810130
 31
0.000000
  6
CONTINUOUS
  0
LINE
  8
WHITE
 10
521.360000
 20
240.810130
 30
0.000000
 11
526.490000
 21
237.730100
 31
0.000000
  6
CONTINUOUS
  0
LINE
  8
WHITE
 10
526.490000
 20
237.730100
 30
0.000000
 11
526.490000
 21
242.180130
 31
0.000000
  6
CONTINUOUS
  0
LINE
  8
WHITE
 10
526.490000
 20
242.180130
 30
0.000000
 11
521.590000
 21
250.490128
 31
0.000000
  6
CONTINUOUS
  0
LINE
  8
WHITE
 10
521.590000
 20
250.490128
 30
0.000000
 11
521.590000
 21
249.920128
 31
0.000000
  6
CONTINUOUS
  0
LINE
  8
WHITE
 10
521.590000
 20
249.920128
 30
0.000000
 11
519.420000
 21
250.950130
 31
0.000000
  6
CONTINUOUS
  0
LINE
  8
WHITE
 10
218.800000
 20
298.350100
 30
0.000000
 11
214.300000
 21
298.000100
 31
0.000000
  6
CONTINUOUS
  0
LINE
  8
WHITE
 10
214.300000
 20
298.000100
 30
0.000000
 11
215.440000
 21
296.180100
 31
0.000000
  6
CONTINUOUS
  0
LINE
  8
WHITE
 10
215.440000
 20
296.180100
 30
0.000000
 11
220.680000
 21
295.720100
 31
0.000000
  6
CONTINUOUS
  0
LINE
  8
WHITE
 10
220.680000
 20
295.720100
 30
0.000000
 11
221.930000
 21
292.650100
 31
0.000000
  6
CONTINUOUS
  0
LINE
  8
WHITE
 10
221.930000
 20
292.650100
 30
0.000000
 11
224.550000
 21
292.420100
 31
0.000000
  6
CONTINUOUS
  0
LINE
  8
WHITE
 10
224.550000
 20
292.420100
 30
0.000000
 11
229.230000
 21
288.890100
 31
0.000000
  6
CONTINUOUS
  0
LINE
  8
WHITE
 10
229.230000
 20
288.890100
 30
0.000000
 11
232.070000
 21
289.680100
 31
0.000000
  6
CONTINUOUS
  0
LINE
  8
WHITE
 10
232.070000
 20
289.680100
 30
0.000000
 11
223.300000
 21
298.690100
 31
0.000000
  6
CONTINUOUS
  0
LINE
  8
WHITE
 10
223.300000
 20
298.690100
 30
0.000000
 11
218.800000
 21
298.350100
 31
0.000000
  6
CONTINUOUS
  0
LINE
  8
WHITE
 10
342.420200
 20
356.620000
 30
0.000000
 11
341.570200
 21
356.910000
 31
0.000000
  6
CONTINUOUS
  0
LINE
  8
WHITE
 10
341.570200
 20
356.910000
 30
0.000000
 11
341.800200
 21
348.020100
 31
0.000000
  6
CONTINUOUS
  0
LINE
  8
WHITE
 10
341.800200
 20
348.020100
 30
0.000000
 11
346.010200
 21
344.720100
 31
0.000000
  6
CONTINUOUS
  0
LINE
  8
WHITE
 10
346.010200
 20
344.720100
 30
0.000000
 11
343.850200
 21
356.910000
 31
0.000000
  6
CONTINUOUS
  0
LINE
  8
WHITE
 10
343.850200
 20
356.910000
 30
0.000000
 11
343.280200
 21
356.340000
 31
0.000000
  6
CONTINUOUS
  0
LINE
  8
WHITE
 10
343.280200
 20
356.340000
 30
0.000000
 11
342.420200
 21
356.620000
 31
0.000000
  6
CONTINUOUS
  0
LINE
  8
WHITE
 10
546.200000
 20
286.440100
 30
0.000000
 11
546.880000
 21
286.380100
 31
0.000000
  6
CONTINUOUS
  0
LINE
  8
WHITE
 10
546.880000
 20
286.380100
 30
0.000000
 11
550.870000
 21
277.150100
 31
0.000000
  6
CONTINUOUS
  0
LINE
  8
WHITE
 10
550.870000
 20
277.150100
 30
0.000000
 11
552.580000
 21
276.010100
 31
0.000000
  6
CONTINUOUS
  0
LINE
  8
WHITE
 10
552.580000
 20
276.010100
 30
0.000000
 11
552.350000
 21
271.910100
 31
0.000000
  6
CONTINUOUS
  0
LINE
  8
WHITE
 10
552.350000
 20
271.910100
 30
0.000000
 11
549.050000
 21
273.850100
 31
0.000000
  6
CONTINUOUS
  0
LINE
  8
WHITE
 10
549.050000
 20
273.850100
 30
0.000000
 11
547.570000
 21
282.620100
 31
0.000000
  6
CONTINUOUS
  0
LINE
  8
WHITE
 10
547.570000
 20
282.620100
 30
0.000000
 11
545.510000
 21
286.500100
 31
0.000000
  6
CONTINUOUS
  0
LINE
  8
WHITE
 10
545.510000
 20
286.500100
 30
0.000000
 11
546.200000
 21
286.440100
 31
0.000000
  6
CONTINUOUS
  0
ARC
  8
WHITE
 10
553.207401
 20
213.660532
 30
0.000000
 40
79.554767
 50
142.172751
 51
145.518104
  6
CONTINUOUS
  0
LINE
  8
WHITE
 10
487.630000
 20
258.700130
 30
0.000000
 11
488.090000
 21
258.810130
 31
0.000000
  6
CONTINUOUS
  0
LINE
  8
WHITE
 10
488.090000
 20
258.810130
 30
0.000000
 11
485.010000
 21
259.950100
 31
0.000000
  6
CONTINUOUS
  0
LINE
  8
WHITE
 10
485.010000
 20
259.950100
 30
0.000000
 11
484.560000
 21
263.480100
 31
0.000000
  6
CONTINUOUS
  0
LINE
  8
WHITE
 10
484.560000
 20
263.480100
 30
0.000000
 11
485.580000
 21
266.560100
 31
0.000000
  6
CONTINUOUS
  0
LINE
  8
WHITE
 10
485.580000
 20
266.560100
 30
0.000000
 11
484.440000
 21
265.990100
 31
0.000000
  6
CONTINUOUS
  0
LINE
  8
WHITE
 10
484.440000
 20
265.990100
 30
0.000000
 11
484.790000
 21
267.470100
 31
0.000000
  6
CONTINUOUS
  0
LINE
  8
WHITE
 10
484.790000
 20
267.470100
 30
0.000000
 11
490.370000
 21
262.450100
 31
0.000000
  6
CONTINUOUS
  0
LINE
  8
WHITE
 10
533.780000
 20
235.230100
 30
0.000000
 11
531.040000
 21
234.890100
 31
0.000000
  6
CONTINUOUS
  0
LINE
  8
WHITE
 10
531.040000
 20
234.890100
 30
0.000000
 11
531.040000
 21
233.520100
 31
0.000000
  6
CONTINUOUS
  0
LINE
  8
WHITE
 10
531.040000
 20
233.520100
 30
0.000000
 11
534.920000
 21
231.580100
 31
0.000000
  6
CONTINUOUS
  0
LINE
  8
WHITE
 10
534.920000
 20
231.580100
 30
0.000000
 11
537.420000
 21
232.040100
 31
0.000000
  6
CONTINUOUS
  0
LINE
  8
WHITE
 10
537.420000
 20
232.040100
 30
0.000000
 11
540.840000
 21
233.980100
 31
0.000000
  6
CONTINUOUS
  0
LINE
  8
WHITE
 10
540.840000
 20
233.980100
 30
0.000000
 11
540.960000
 21
234.890100
 31
0.000000
  6
CONTINUOUS
  0
LINE
  8
WHITE
 10
540.960000
 20
234.890100
 30
0.000000
 11
536.510000
 21
235.570100
 31
0.000000
  6
CONTINUOUS
  0
LINE
  8
WHITE
 10
536.510000
 20
235.570100
 30
0.000000
 11
533.780000
 21
235.230100
 31
0.000000
  6
CONTINUOUS
  0
LINE
  8
WHITE
 10
335.640200
 20
352.810000
 30
0.000000
 11
338.260200
 21
354.170000
 31
0.000000
  6
CONTINUOUS
  0
LINE
  8
WHITE
 10
338.260200
 20
354.170000
 30
0.000000
 11
339.750200
 21
345.740100
 31
0.000000
  6
CONTINUOUS
  0
LINE
  8
WHITE
 10
339.750200
 20
345.740100
 30
0.000000
 11
335.760200
 21
350.420000
 31
0.000000
  6
CONTINUOUS
  0
LINE
  8
WHITE
 10
335.760200
 20
350.420000
 30
0.000000
 11
335.640200
 21
352.810000
 31
0.000000
  6
CONTINUOUS
  0
ARC
  8
WHITE
 10
552.110365
 20
216.072073
 30
0.000000
 40
49.168916
 50
-86.794221
 51
-82.533139
  6
CONTINUOUS
  0
LINE
  8
WHITE
 10
554.860000
 20
166.980100
 30
0.000000
 11
553.260000
 21
166.860100
 31
0.000000
  6
CONTINUOUS
  0
LINE
  8
WHITE
 10
553.260000
 20
166.860100
 30
0.000000
 11
553.150000
 21
165.840100
 31
0.000000
  6
CONTINUOUS
  0
LINE
  8
WHITE
 10
553.150000
 20
165.840100
 30
0.000000
 11
554.630000
 21
164.470100
 31
0.000000
  6
CONTINUOUS
  0
LINE
  8
WHITE
 10
554.630000
 20
164.470100
 30
0.000000
 11
558.390000
 21
163.670100
 31
0.000000
  6
CONTINUOUS
  0
LINE
  8
WHITE
 10
558.390000
 20
163.670100
 30
0.000000
 11
558.500000
 21
167.320100
 31
0.000000
  6
CONTINUOUS
  0
LINE
  8
WHITE
 10
333.940200
 20
372.860000
 30
0.000000
 11
332.340200
 21
372.750000
 31
0.000000
  6
CONTINUOUS
  0
LINE
  8
WHITE
 10
332.340200
 20
372.750000
 30
0.000000
 11
331.090200
 21
369.100000
 31
0.000000
  6
CONTINUOUS
  0
LINE
  8
WHITE
 10
331.090200
 20
369.100000
 30
0.000000
 11
336.550200
 21
370.930000
 31
0.000000
  6
CONTINUOUS
  0
LINE
  8
WHITE
 10
336.550200
 20
370.930000
 30
0.000000
 11
336.550200
 21
372.410000
 31
0.000000
  6
CONTINUOUS
  0
LINE
  8
WHITE
 10
336.550200
 20
372.410000
 30
0.000000
 11
335.530200
 21
372.970000
 31
0.000000
  6
CONTINUOUS
  0
LINE
  8
WHITE
 10
335.530200
 20
372.970000
 30
0.000000
 11
333.940200
 21
372.860000
 31
0.000000
  6
CONTINUOUS
  0
LINE
  8
WHITE
 10
556.790000
 20
325.410100
 30
0.000000
 11
554.740000
 21
324.780100
 31
0.000000
  6
CONTINUOUS
  0
LINE
  8
WHITE
 10
554.740000
 20
324.780100
 30
0.000000
 11
553.300000
 21
322.320100
 31
0.000000
  6
CONTINUOUS
  0
LINE
  8
WHITE
 10
553.300000
 20
322.320100
 30
0.000000
 11
552.800000
 21
320.110100
 31
0.000000
  6
CONTINUOUS
  0
LINE
  8
WHITE
 10
552.800000
 20
320.110100
 30
0.000000
 11
556.340000
 21
322.500100
 31
0.000000
  6
CONTINUOUS
  0
LINE
  8
WHITE
 10
556.340000
 20
322.500100
 30
0.000000
 11
558.840000
 21
326.030100
 31
0.000000
  6
CONTINUOUS
  0
LINE
  8
WHITE
 10
558.840000
 20
326.030100
 30
0.000000
 11
556.790000
 21
325.410100
 31
0.000000
  6
CONTINUOUS
  0
LINE
  8
WHITE
 10
558.270000
 20
226.910100
 30
0.000000
 11
556.110000
 21
229.300100
 31
0.000000
  6
CONTINUOUS
  0
LINE
  8
WHITE
 10
556.110000
 20
229.300100
 30
0.000000
 11
556.910000
 21
229.640100
 31
0.000000
  6
CONTINUOUS
  0
LINE
  8
WHITE
 10
556.910000
 20
229.640100
 30
0.000000
 11
560.320000
 21
233.290100
 31
0.000000
  6
CONTINUOUS
  0
LINE
  8
WHITE
 10
560.320000
 20
233.290100
 30
0.000000
 11
560.780000
 21
233.290100
 31
0.000000
  6
CONTINUOUS
  0
LINE
  8
WHITE
 10
560.780000
 20
233.290100
 30
0.000000
 11
558.270000
 21
226.910100
 31
0.000000
  6
CONTINUOUS
  0
LINE
  8
WHITE
 10
545.630000
 20
333.320100
 30
0.000000
 11
544.940000
 21
332.180100
 31
0.000000
  6
CONTINUOUS
  0
LINE
  8
WHITE
 10
544.940000
 20
332.180100
 30
0.000000
 11
549.050000
 21
329.000100
 31
0.000000
  6
CONTINUOUS
  0
LINE
  8
WHITE
 10
549.050000
 20
329.000100
 30
0.000000
 11
549.160000
 21
328.310100
 31
0.000000
  6
CONTINUOUS
  0
LINE
  8
WHITE
 10
549.160000
 20
328.310100
 30
0.000000
 11
549.280000
 21
329.680100
 31
0.000000
  6
CONTINUOUS
  0
LINE
  8
WHITE
 10
549.280000
 20
329.680100
 30
0.000000
 11
546.310000
 21
334.460100
 31
0.000000
  6
CONTINUOUS
  0
LINE
  8
WHITE
 10
546.310000
 20
334.460100
 30
0.000000
 11
545.630000
 21
333.320100
 31
0.000000
  6
CONTINUOUS
  0
ARC
  8
WHITE
 10
358.802082
 20
353.516473
 30
0.000000
 40
14.942046
 50
-103.869916
 51
-93.959938
  6
CONTINUOUS
  0
LINE
  8
WHITE
 10
355.220200
 20
339.010100
 30
0.000000
 11
353.070200
 21
337.940100
 31
0.000000
  6
CONTINUOUS
  0
LINE
  8
WHITE
 10
353.070200
 20
337.940100
 30
0.000000
 11
353.210200
 21
336.330100
 31
0.000000
  6
CONTINUOUS
  0
LINE
  8
WHITE
 10
353.210200
 20
336.330100
 30
0.000000
 11
354.280200
 21
337.270100
 31
0.000000
  6
CONTINUOUS
  0
LINE
  8
WHITE
 10
354.280200
 20
337.270100
 30
0.000000
 11
355.220200
 21
336.470100
 31
0.000000
  6
CONTINUOUS
  0
LINE
  8
WHITE
 10
355.220200
 20
336.470100
 30
0.000000
 11
356.690200
 21
336.470100
 31
0.000000
  6
CONTINUOUS
  0
LINE
  8
WHITE
 10
356.690200
 20
336.470100
 30
0.000000
 11
356.690200
 21
337.540100
 31
0.000000
  6
CONTINUOUS
  0
LINE
  8
WHITE
 10
356.690200
 20
337.540100
 30
0.000000
 11
357.770200
 21
337.000100
 31
0.000000
  6
CONTINUOUS
  0
LINE
  8
WHITE
 10
357.770200
 20
337.000100
 30
0.000000
 11
357.770200
 21
338.610100
 31
0.000000
  6
CONTINUOUS
  0
LINE
  8
WHITE
 10
548.140000
 20
267.810100
 30
0.000000
 11
546.080000
 21
268.150100
 31
0.000000
  6
CONTINUOUS
  0
LINE
  8
WHITE
 10
546.080000
 20
268.150100
 30
0.000000
 11
546.080000
 21
266.220100
 31
0.000000
  6
CONTINUOUS
  0
LINE
  8
WHITE
 10
546.080000
 20
266.220100
 30
0.000000
 11
548.020000
 21
265.420100
 31
0.000000
  6
CONTINUOUS
  0
LINE
  8
WHITE
 10
548.020000
 20
265.420100
 30
0.000000
 11
549.280000
 21
267.130100
 31
0.000000
  6
CONTINUOUS
  0
LINE
  8
WHITE
 10
549.280000
 20
267.130100
 30
0.000000
 11
548.140000
 21
267.810100
 31
0.000000
  6
CONTINUOUS
  0
LINE
  8
WHITE
 10
558.790000
 20
263.590100
 30
0.000000
 11
557.710000
 21
262.340100
 31
0.000000
  6
CONTINUOUS
  0
LINE
  8
WHITE
 10
557.710000
 20
262.340100
 30
0.000000
 11
561.580000
 21
262.340100
 31
0.000000
  6
CONTINUOUS
  0
LINE
  8
WHITE
 10
561.580000
 20
262.340100
 30
0.000000
 11
560.780000
 21
264.280100
 31
0.000000
  6
CONTINUOUS
  0
LINE
  8
WHITE
 10
560.780000
 20
264.280100
 30
0.000000
 11
559.870000
 21
264.850100
 31
0.000000
  6
CONTINUOUS
  0
LINE
  8
WHITE
 10
559.870000
 20
264.850100
 30
0.000000
 11
558.790000
 21
263.590100
 31
0.000000
  6
CONTINUOUS
  0
LINE
  8
WHITE
 10
563.740000
 20
251.180130
 30
0.000000
 11
563.290000
 21
248.560130
 31
0.000000
  6
CONTINUOUS
  0
LINE
  8
WHITE
 10
563.290000
 20
248.560130
 30
0.000000
 11
565.230000
 21
250.610128
 31
0.000000
  6
CONTINUOUS
  0
LINE
  8
WHITE
 10
565.230000
 20
250.610128
 30
0.000000
 11
564.200000
 21
253.790130
 31
0.000000
  6
CONTINUOUS
  0
LINE
  8
WHITE
 10
564.200000
 20
253.790130
 30
0.000000
 11
563.740000
 21
251.180130
 31
0.000000
  6
CONTINUOUS
  0
LINE
  8
WHITE
 10
557.020000
 20
270.710100
 30
0.000000
 11
556.450000
 21
270.430100
 31
0.000000
  6
CONTINUOUS
  0
LINE
  8
WHITE
 10
556.450000
 20
270.430100
 30
0.000000
 11
556.450000
 21
267.130100
 31
0.000000
  6
CONTINUOUS
  0
LINE
  8
WHITE
 10
556.450000
 20
267.130100
 30
0.000000
 11
557.020000
 21
268.260100
 31
0.000000
  6
CONTINUOUS
  0
LINE
  8
WHITE
 10
557.020000
 20
268.260100
 30
0.000000
 11
558.160000
 21
268.260100
 31
0.000000
  6
CONTINUOUS
  0
LINE
  8
WHITE
 10
558.160000
 20
268.260100
 30
0.000000
 11
557.590000
 21
271.000100
 31
0.000000
  6
CONTINUOUS
  0
LINE
  8
WHITE
 10
557.590000
 20
271.000100
 30
0.000000
 11
557.020000
 21
270.710100
 31
0.000000
  6
CONTINUOUS
  0
LINE
  8
WHITE
 10
551.440000
 20
315.320100
 30
0.000000
 11
549.840000
 21
314.640100
 31
0.000000
  6
CONTINUOUS
  0
LINE
  8
WHITE
 10
549.840000
 20
314.640100
 30
0.000000
 11
552.580000
 21
310.990100
 31
0.000000
  6
CONTINUOUS
  0
LINE
  8
WHITE
 10
552.580000
 20
310.990100
 30
0.000000
 11
551.320000
 21
313.160100
 31
0.000000
  6
CONTINUOUS
  0
LINE
  8
WHITE
 10
551.320000
 20
313.160100
 30
0.000000
 11
551.440000
 21
315.320100
 31
0.000000
  6
CONTINUOUS
  0
LINE
  8
WHITE
 10
553.210000
 20
266.780100
 30
0.000000
 11
553.720000
 21
267.580100
 31
0.000000
  6
CONTINUOUS
  0
LINE
  8
WHITE
 10
553.720000
 20
267.580100
 30
0.000000
 11
554.290000
 21
265.530100
 31
0.000000
  6
CONTINUOUS
  0
LINE
  8
WHITE
 10
554.290000
 20
265.530100
 30
0.000000
 11
552.690000
 21
265.990100
 31
0.000000
  6
CONTINUOUS
  0
LINE
  8
WHITE
 10
552.690000
 20
265.990100
 30
0.000000
 11
553.210000
 21
266.780100
 31
0.000000
  6
CONTINUOUS
  0
LINE
  8
WHITE
 10
566.480000
 20
241.490130
 30
0.000000
 11
567.620000
 21
239.670100
 31
0.000000
  6
CONTINUOUS
  0
LINE
  8
WHITE
 10
567.620000
 20
239.670100
 30
0.000000
 11
570.240000
 21
241.720130
 31
0.000000
  6
CONTINUOUS
  0
LINE
  8
WHITE
 10
570.240000
 20
241.720130
 30
0.000000
 11
566.480000
 21
240.130130
 31
0.000000
  6
CONTINUOUS
  0
LINE
  8
WHITE
 10
566.480000
 20
240.130130
 30
0.000000
 11
566.480000
 21
241.490130
 31
0.000000
  6
CONTINUOUS
  0
LINE
  8
WHITE
 10
237.590000
 20
193.180100
 30
0.000000
 11
72.630000
 21
193.180100
 31
0.000000
  6
CONTINUOUS
  0
LINE
  8
WHITE
 10
78.220000
 20
313.380100
 30
0.000000
 11
169.850000
 21
313.390100
 31
0.000000
  6
CONTINUOUS
  0
LINE
  8
WHITE
 10
232.300000
 20
116.730000
 30
0.000000
 11
188.780000
 21
137.810000
 31
0.000000
  6
CONTINUOUS
  0
LINE
  8
WHITE
 10
188.780000
 20
137.810000
 30
0.000000
 11
152.890000
 21
160.260100
 31
0.000000
  6
CONTINUOUS
  0
LINE
  8
WHITE
 10
152.890000
 20
160.260100
 30
0.000000
 11
126.570000
 21
182.930100
 31
0.000000
  6
CONTINUOUS
  0
LINE
  8
WHITE
 10
126.570000
 20
182.930100
 30
0.000000
 11
108.790000
 21
205.720100
 31
0.000000
  6
CONTINUOUS
  0
LINE
  8
WHITE
 10
108.790000
 20
205.720100
 30
0.000000
 11
98.770000
 21
228.050100
 31
0.000000
  6
CONTINUOUS
  0
LINE
  8
WHITE
 10
98.770000
 20
228.050100
 30
0.000000
 11
95.460000
 21
250.040128
 31
0.000000
  6
CONTINUOUS
  0
LINE
  8
WHITE
 10
95.460000
 20
250.040128
 30
0.000000
 11
97.970000
 21
271.000100
 31
0.000000
  6
CONTINUOUS
  0
LINE
  8
WHITE
 10
97.970000
 20
271.000100
 30
0.000000
 11
105.490000
 21
291.170100
 31
0.000000
  6
CONTINUOUS
  0
LINE
  8
WHITE
 10
105.490000
 20
291.170100
 30
0.000000
 11
117.110000
 21
309.970100
 31
0.000000
  6
CONTINUOUS
  0
LINE
  8
WHITE
 10
117.110000
 20
309.970100
 30
0.000000
 11
131.690000
 21
327.400100
 31
0.000000
  6
CONTINUOUS
  0
LINE
  8
WHITE
 10
131.690000
 20
327.400100
 30
0.000000
 11
166.790000
 21
356.680000
 31
0.000000
  6
CONTINUOUS
  0
LINE
  8
WHITE
 10
170.060000
 20
316.820100
 30
0.000000
 11
167.360000
 21
313.390100
 31
0.000000
  6
CONTINUOUS
  0
LINE
  8
WHITE
 10
167.360000
 20
313.390100
 30
0.000000
 11
151.630000
 21
275.900100
 31
0.000000
  6
CONTINUOUS
  0
LINE
  8
WHITE
 10
151.630000
 20
275.900100
 30
0.000000
 11
148.670000
 21
255.850130
 31
0.000000
  6
CONTINUOUS
  0
LINE
  8
WHITE
 10
148.670000
 20
255.850130
 30
0.000000
 11
149.470000
 21
235.340100
 31
0.000000
  6
CONTINUOUS
  0
LINE
  8
WHITE
 10
149.470000
 20
235.340100
 30
0.000000
 11
154.590000
 21
214.490100
 31
0.000000
  6
CONTINUOUS
  0
LINE
  8
WHITE
 10
154.590000
 20
214.490100
 30
0.000000
 11
164.510000
 21
193.520100
 31
0.000000
  6
CONTINUOUS
  0
LINE
  8
WHITE
 10
164.510000
 20
193.520100
 30
0.000000
 11
179.660000
 21
172.790100
 31
0.000000
  6
CONTINUOUS
  0
LINE
  8
WHITE
 10
179.660000
 20
172.790100
 30
0.000000
 11
200.290000
 21
152.280100
 31
0.000000
  6
CONTINUOUS
  0
LINE
  8
WHITE
 10
200.290000
 20
152.280100
 30
0.000000
 11
227.180000
 21
132.460000
 31
0.000000
  6
CONTINUOUS
  0
LINE
  8
WHITE
 10
227.180000
 20
132.460000
 30
0.000000
 11
246.570000
 21
121.360000
 31
0.000000
  6
CONTINUOUS
  0
LINE
  8
WHITE
 10
201.590000
 20
277.740100
 30
0.000000
 11
199.260000
 21
265.080100
 31
0.000000
  6
CONTINUOUS
  0
LINE
  8
WHITE
 10
199.260000
 20
265.080100
 30
0.000000
 11
198.810000
 21
244.570130
 31
0.000000
  6
CONTINUOUS
  0
LINE
  8
WHITE
 10
198.810000
 20
244.570130
 30
0.000000
 11
201.990000
 21
223.260100
 31
0.000000
  6
CONTINUOUS
  0
LINE
  8
WHITE
 10
201.990000
 20
223.260100
 30
0.000000
 11
209.170000
 21
201.390100
 31
0.000000
  6
CONTINUOUS
  0
LINE
  8
WHITE
 10
209.170000
 20
201.390100
 30
0.000000
 11
220.800000
 21
179.170100
 31
0.000000
  6
CONTINUOUS
  0
LINE
  8
WHITE
 10
220.800000
 20
179.170100
 30
0.000000
 11
237.430000
 21
156.840100
 31
0.000000
  6
CONTINUOUS
  0
LINE
  8
WHITE
 10
237.430000
 20
156.840100
 30
0.000000
 11
259.530000
 21
134.510000
 31
0.000000
  6
CONTINUOUS
  0
LINE
  8
WHITE
 10
259.530000
 20
134.510000
 30
0.000000
 11
270.480000
 21
125.880000
 31
0.000000
  6
CONTINUOUS
  0
LINE
  8
WHITE
 10
207.610000
 20
296.590100
 30
0.000000
 11
212.320000
 21
308.290100
 31
0.000000
  6
CONTINUOUS
  0
LINE
  8
WHITE
 10
463.480200
 20
125.390000
 30
0.000000
 11
472.250000
 21
128.700000
 31
0.000000
  6
CONTINUOUS
  0
LINE
  8
WHITE
 10
472.250000
 20
128.700000
 30
0.000000
 11
478.860000
 21
129.490000
 31
0.000000
  6
CONTINUOUS
  0
LINE
  8
WHITE
 10
478.860000
 20
129.490000
 30
0.000000
 11
491.390000
 21
120.150000
 31
0.000000
  6
CONTINUOUS
  0
LINE
  8
WHITE
 10
491.390000
 20
120.150000
 30
0.000000
 11
432.260200
 21
107.280000
 31
0.000000
  6
CONTINUOUS
  0
LINE
  8
WHITE
 10
432.260200
 20
107.280000
 30
0.000000
 11
389.990200
 21
102.720000
 31
0.000000
  6
CONTINUOUS
  0
LINE
  8
WHITE
 10
389.990200
 20
102.720000
 30
0.000000
 11
346.810200
 21
101.240000
 31
0.000000
  6
CONTINUOUS
  0
LINE
  8
WHITE
 10
346.810200
 20
101.240000
 30
0.000000
 11
298.050200
 21
103.510000
 31
0.000000
  6
CONTINUOUS
  0
LINE
  8
WHITE
 10
298.050200
 20
103.510000
 30
0.000000
 11
264.210000
 21
107.840000
 31
0.000000
  6
CONTINUOUS
  0
LINE
  8
WHITE
 10
264.210000
 20
107.840000
 30
0.000000
 11
229.680000
 21
115.930000
 31
0.000000
  6
CONTINUOUS
  0
LINE
  8
WHITE
 10
229.680000
 20
115.930000
 30
0.000000
 11
232.300000
 21
116.730000
 31
0.000000
  6
CONTINUOUS
  0
LINE
  8
WHITE
 10
232.300000
 20
116.730000
 30
0.000000
 11
236.520000
 21
120.610000
 31
0.000000
  6
CONTINUOUS
  0
LINE
  8
WHITE
 10
236.520000
 20
120.610000
 30
0.000000
 11
243.580000
 21
119.350000
 31
0.000000
  6
CONTINUOUS
  0
LINE
  8
WHITE
 10
243.580000
 20
119.350000
 30
0.000000
 11
245.970000
 21
120.040000
 31
0.000000
  6
CONTINUOUS
  0
LINE
  8
WHITE
 10
245.970000
 20
120.040000
 30
0.000000
 11
247.110000
 21
122.540000
 31
0.000000
  6
CONTINUOUS
  0
LINE
  8
WHITE
 10
247.110000
 20
122.540000
 30
0.000000
 11
249.050000
 21
122.540000
 31
0.000000
  6
CONTINUOUS
  0
LINE
  8
WHITE
 10
249.050000
 20
122.540000
 30
0.000000
 11
249.620000
 21
121.520000
 31
0.000000
  6
CONTINUOUS
  0
LINE
  8
WHITE
 10
249.620000
 20
121.520000
 30
0.000000
 11
265.680000
 21
120.950000
 31
0.000000
  6
CONTINUOUS
  0
LINE
  8
WHITE
 10
265.680000
 20
120.950000
 30
0.000000
 11
267.960000
 21
125.620000
 31
0.000000
  6
CONTINUOUS
  0
LINE
  8
WHITE
 10
267.960000
 20
125.620000
 30
0.000000
 11
273.550200
 21
126.190000
 31
0.000000
  6
CONTINUOUS
  0
LINE
  8
WHITE
 10
273.550200
 20
126.190000
 30
0.000000
 11
275.710200
 21
127.330000
 31
0.000000
  6
CONTINUOUS
  0
LINE
  8
WHITE
 10
275.710200
 20
127.330000
 30
0.000000
 11
284.710200
 21
130.060000
 31
0.000000
  6
CONTINUOUS
  0
LINE
  8
WHITE
 10
284.710200
 20
130.060000
 30
0.000000
 11
292.920200
 21
129.040000
 31
0.000000
  6
CONTINUOUS
  0
LINE
  8
WHITE
 10
292.920200
 20
129.040000
 30
0.000000
 11
308.980200
 21
120.610000
 31
0.000000
  6
CONTINUOUS
  0
LINE
  8
WHITE
 10
308.980200
 20
120.610000
 30
0.000000
 11
318.100200
 21
122.200000
 31
0.000000
  6
CONTINUOUS
  0
LINE
  8
WHITE
 10
318.100200
 20
122.200000
 30
0.000000
 11
326.300200
 21
126.530000
 31
0.000000
  6
CONTINUOUS
  0
LINE
  8
WHITE
 10
326.300200
 20
126.530000
 30
0.000000
 11
336.670200
 21
129.150000
 31
0.000000
  6
CONTINUOUS
  0
LINE
  8
WHITE
 10
336.670200
 20
129.150000
 30
0.000000
 11
351.020200
 21
129.380000
 31
0.000000
  6
CONTINUOUS
  0
LINE
  8
WHITE
 10
351.020200
 20
129.380000
 30
0.000000
 11
362.760180
 21
133.940000
 31
0.000000
  6
CONTINUOUS
  0
LINE
  8
WHITE
 10
362.760180
 20
133.940000
 30
0.000000
 11
370.730179
 21
133.820000
 31
0.000000
  6
CONTINUOUS
  0
LINE
  8
WHITE
 10
370.730179
 20
133.820000
 30
0.000000
 11
386.120200
 21
127.900000
 31
0.000000
  6
CONTINUOUS
  0
LINE
  8
WHITE
 10
386.120200
 20
127.900000
 30
0.000000
 11
402.640200
 21
128.240000
 31
0.000000
  6
CONTINUOUS
  0
LINE
  8
WHITE
 10
402.640200
 20
128.240000
 30
0.000000
 11
409.590200
 21
129.380000
 31
0.000000
  6
CONTINUOUS
  0
LINE
  8
WHITE
 10
409.590200
 20
129.380000
 30
0.000000
 11
415.970200
 21
127.220000
 31
0.000000
  6
CONTINUOUS
  0
LINE
  8
WHITE
 10
415.970200
 20
127.220000
 30
0.000000
 11
424.170200
 21
125.390000
 31
0.000000
  6
CONTINUOUS
  0
LINE
  8
WHITE
 10
424.170200
 20
125.390000
 30
0.000000
 11
434.770200
 21
127.330000
 31
0.000000
  6
CONTINUOUS
  0
LINE
  8
WHITE
 10
434.770200
 20
127.330000
 30
0.000000
 11
441.260200
 21
126.990000
 31
0.000000
  6
CONTINUOUS
  0
LINE
  8
WHITE
 10
441.260200
 20
126.990000
 30
0.000000
 11
447.750200
 21
125.620000
 31
0.000000
  6
CONTINUOUS
  0
LINE
  8
WHITE
 10
447.750200
 20
125.620000
 30
0.000000
 11
455.960200
 21
127.330000
 31
0.000000
  6
CONTINUOUS
  0
LINE
  8
WHITE
 10
455.960200
 20
127.330000
 30
0.000000
 11
464.050200
 21
125.390000
 31
0.000000
  6
CONTINUOUS
  0
LINE
  8
WHITE
 10
464.050200
 20
125.390000
 30
0.000000
 11
462.910200
 21
125.390000
 31
0.000000
  6
CONTINUOUS
  0
LINE
  8
WHITE
 10
333.280200
 20
313.390100
 30
0.000000
 11
233.780000
 21
313.390100
 31
0.000000
  6
CONTINUOUS
  0
LINE
  8
WHITE
 10
249.610000
 20
384.140000
 30
0.000000
 11
259.870000
 21
389.270000
 31
0.000000
  6
CONTINUOUS
  0
LINE
  8
WHITE
 10
249.650000
 20
270.280100
 30
0.000000
 11
253.950000
 21
302.670100
 31
0.000000
  6
CONTINUOUS
  0
LINE
  8
WHITE
 10
253.950000
 20
302.670100
 30
0.000000
 11
264.320000
 21
334.460100
 31
0.000000
  6
CONTINUOUS
  0
LINE
  8
WHITE
 10
264.320000
 20
334.460100
 30
0.000000
 11
264.980000
 21
335.710100
 31
0.000000
  6
CONTINUOUS
  0
LINE
  8
WHITE
 10
264.640000
 20
179.740100
 30
0.000000
 11
267.390000
 21
170.740100
 31
0.000000
  6
CONTINUOUS
  0
LINE
  8
WHITE
 10
267.390000
 20
170.740100
 30
0.000000
 11
290.600200
 21
129.330000
 31
0.000000
  6
CONTINUOUS
  0
LINE
  8
WHITE
 10
268.210000
 20
341.770100
 30
0.000000
 11
267.390000
 21
340.230100
 31
0.000000
  6
CONTINUOUS
  0
LINE
  8
WHITE
 10
362.750180
 20
253.570130
 30
0.000000
 11
273.820200
 21
253.570130
 31
0.000000
  6
CONTINUOUS
  0
LINE
  8
WHITE
 10
372.800180
 20
193.180100
 30
0.000000
 11
274.260200
 21
193.180100
 31
0.000000
  6
CONTINUOUS
  0
LINE
  8
WHITE
 10
285.850200
 20
388.780000
 30
0.000000
 11
300.550200
 21
388.010000
 31
0.000000
  6
CONTINUOUS
  0
LINE
  8
WHITE
 10
300.550200
 20
388.010000
 30
0.000000
 11
299.870200
 21
384.480000
 31
0.000000
  6
CONTINUOUS
  0
LINE
  8
WHITE
 10
299.870200
 20
384.480000
 30
0.000000
 11
295.650200
 21
377.420000
 31
0.000000
  6
CONTINUOUS
  0
LINE
  8
WHITE
 10
295.650200
 20
377.420000
 30
0.000000
 11
296.790200
 21
376.280000
 31
0.000000
  6
CONTINUOUS
  0
LINE
  8
WHITE
 10
296.790200
 20
376.280000
 30
0.000000
 11
296.450200
 21
372.630000
 31
0.000000
  6
CONTINUOUS
  0
LINE
  8
WHITE
 10
296.450200
 20
372.630000
 30
0.000000
 11
299.070200
 21
365.340000
 31
0.000000
  6
CONTINUOUS
  0
LINE
  8
WHITE
 10
299.070200
 20
365.340000
 30
0.000000
 11
305.450200
 21
363.180000
 31
0.000000
  6
CONTINUOUS
  0
LINE
  8
WHITE
 10
305.450200
 20
363.180000
 30
0.000000
 11
312.400200
 21
371.490000
 31
0.000000
  6
CONTINUOUS
  0
LINE
  8
WHITE
 10
312.400200
 20
371.490000
 30
0.000000
 11
326.080200
 21
377.530000
 31
0.000000
  6
CONTINUOUS
  0
LINE
  8
WHITE
 10
326.080200
 20
377.530000
 30
0.000000
 11
326.760200
 21
379.360000
 31
0.000000
  6
CONTINUOUS
  0
LINE
  8
WHITE
 10
326.760200
 20
379.360000
 30
0.000000
 11
338.830200
 21
387.330000
 31
0.000000
  6
CONTINUOUS
  0
LINE
  8
WHITE
 10
338.830200
 20
387.330000
 30
0.000000
 11
343.390200
 21
388.920000
 31
0.000000
  6
CONTINUOUS
  0
LINE
  8
WHITE
 10
343.390200
 20
388.920000
 30
0.000000
 11
341.570200
 21
388.470000
 31
0.000000
  6
CONTINUOUS
  0
LINE
  8
WHITE
 10
341.570200
 20
388.470000
 30
0.000000
 11
336.210200
 21
392.120000
 31
0.000000
  6
CONTINUOUS
  0
LINE
  8
WHITE
 10
336.210200
 20
392.120000
 30
0.000000
 11
333.710200
 21
395.760000
 31
0.000000
  6
CONTINUOUS
  0
LINE
  8
WHITE
 10
333.710200
 20
395.760000
 30
0.000000
 11
324.360200
 21
394.170000
 31
0.000000
  6
CONTINUOUS
  0
LINE
  8
WHITE
 10
324.360200
 20
394.170000
 30
0.000000
 11
313.770200
 21
393.710000
 31
0.000000
  6
CONTINUOUS
  0
LINE
  8
WHITE
 10
313.770200
 20
393.710000
 30
0.000000
 11
302.710200
 21
396.100000
 31
0.000000
  6
CONTINUOUS
  0
LINE
  8
WHITE
 10
302.710200
 20
396.100000
 30
0.000000
 11
300.660200
 21
396.220000
 31
0.000000
  6
CONTINUOUS
  0
LINE
  8
WHITE
 10
300.660200
 20
396.220000
 30
0.000000
 11
298.390200
 21
394.740000
 31
0.000000
  6
CONTINUOUS
  0
LINE
  8
WHITE
 10
298.390200
 20
394.740000
 30
0.000000
 11
290.300200
 21
389.840000
 31
0.000000
  6
CONTINUOUS
  0
LINE
  8
WHITE
 10
290.300200
 20
389.840000
 30
0.000000
 11
286.060200
 21
388.910000
 31
0.000000
  6
CONTINUOUS
  0
LINE
  8
WHITE
 10
286.060200
 20
388.910000
 30
0.000000
 11
278.000200
 21
383.920000
 31
0.000000
  6
CONTINUOUS
  0
LINE
  8
WHITE
 10
300.420200
 20
364.890000
 30
0.000000
 11
285.250200
 21
364.890000
 31
0.000000
  6
CONTINUOUS
  0
LINE
  8
WHITE
 10
296.830200
 20
379.400000
 30
0.000000
 11
290.640200
 21
375.070000
 31
0.000000
  6
CONTINUOUS
  0
LINE
  8
WHITE
 10
321.570200
 20
375.540000
 30
0.000000
 11
320.380200
 21
373.660000
 31
0.000000
  6
CONTINUOUS
  0
LINE
  8
WHITE
 10
320.380200
 20
373.660000
 30
0.000000
 11
311.830200
 21
346.650100
 31
0.000000
  6
CONTINUOUS
  0
LINE
  8
WHITE
 10
311.830200
 20
346.650100
 30
0.000000
 11
305.220200
 21
311.330100
 31
0.000000
  6
CONTINUOUS
  0
LINE
  8
WHITE
 10
305.220200
 20
311.330100
 30
0.000000
 11
301.460200
 21
270.430100
 31
0.000000
  6
CONTINUOUS
  0
LINE
  8
WHITE
 10
301.460200
 20
270.430100
 30
0.000000
 11
301.230200
 21
227.140100
 31
0.000000
  6
CONTINUOUS
  0
LINE
  8
WHITE
 10
301.230200
 20
227.140100
 30
0.000000
 11
305.110200
 21
184.070100
 31
0.000000
  6
CONTINUOUS
  0
LINE
  8
WHITE
 10
305.110200
 20
184.070100
 30
0.000000
 11
314.110200
 21
144.300000
 31
0.000000
  6
CONTINUOUS
  0
LINE
  8
WHITE
 10
314.110200
 20
144.300000
 30
0.000000
 11
322.600200
 21
124.580000
 31
0.000000
  6
CONTINUOUS
  0
LINE
  8
WHITE
 10
353.710200
 20
364.890000
 30
0.000000
 11
306.880200
 21
364.890000
 31
0.000000
  6
CONTINUOUS
  0
LINE
  8
WHITE
 10
350.800200
 20
129.370000
 30
0.000000
 11
350.800200
 21
258.610130
 31
0.000000
  6
CONTINUOUS
  0
LINE
  8
WHITE
 10
350.800200
 20
324.850100
 30
0.000000
 11
350.800200
 21
318.760100
 31
0.000000
  6
CONTINUOUS
  0
LINE
  8
WHITE
 10
350.800200
 20
347.390100
 30
0.000000
 11
350.800200
 21
360.240000
 31
0.000000
  6
CONTINUOUS
  0
LINE
  8
WHITE
 10
350.800200
 20
361.900000
 30
0.000000
 11
350.800200
 21
389.840000
 31
0.000000
  6
CONTINUOUS
  0
LINE
  8
WHITE
 10
371.190179
 20
389.270000
 30
0.000000
 11
375.970180
 21
381.290000
 31
0.000000
  6
CONTINUOUS
  0
LINE
  8
WHITE
 10
396.530200
 20
185.870100
 30
0.000000
 11
396.370200
 21
184.070100
 31
0.000000
  6
CONTINUOUS
  0
LINE
  8
WHITE
 10
396.370200
 20
184.070100
 30
0.000000
 11
387.370200
 21
144.300000
 31
0.000000
  6
CONTINUOUS
  0
LINE
  8
WHITE
 10
387.370200
 20
144.300000
 30
0.000000
 11
381.130200
 21
129.820000
 31
0.000000
  6
CONTINUOUS
  0
LINE
  8
WHITE
 10
395.570200
 20
388.700000
 30
0.000000
 11
406.050200
 21
380.270000
 31
0.000000
  6
CONTINUOUS
  0
LINE
  8
WHITE
 10
406.050200
 20
380.270000
 30
0.000000
 11
407.930200
 21
377.930000
 31
0.000000
  6
CONTINUOUS
  0
LINE
  8
WHITE
 10
529.530000
 20
193.180100
 30
0.000000
 11
403.470200
 21
193.180100
 31
0.000000
  6
CONTINUOUS
  0
LINE
  8
WHITE
 10
448.490200
 20
286.850100
 30
0.000000
 11
451.740200
 21
264.850100
 31
0.000000
  6
CONTINUOUS
  0
LINE
  8
WHITE
 10
451.740200
 20
264.850100
 30
0.000000
 11
448.780200
 21
220.190100
 31
0.000000
  6
CONTINUOUS
  0
LINE
  8
WHITE
 10
448.780200
 20
220.190100
 30
0.000000
 11
433.970200
 21
170.850100
 31
0.000000
  6
CONTINUOUS
  0
LINE
  8
WHITE
 10
433.970200
 20
170.850100
 30
0.000000
 11
410.660200
 21
129.010000
 31
0.000000
  6
CONTINUOUS
  0
LINE
  8
WHITE
 10
413.920200
 20
389.840000
 30
0.000000
 11
423.050200
 21
384.180000
 31
0.000000
  6
CONTINUOUS
  0
LINE
  8
WHITE
 10
427.590200
 20
253.450130
 30
0.000000
 11
538.660000
 21
253.570130
 31
0.000000
  6
CONTINUOUS
  0
LINE
  8
WHITE
 10
498.570000
 20
284.900100
 30
0.000000
 11
502.220000
 21
265.080100
 31
0.000000
  6
CONTINUOUS
  0
LINE
  8
WHITE
 10
502.220000
 20
265.080100
 30
0.000000
 11
502.670000
 21
244.570130
 31
0.000000
  6
CONTINUOUS
  0
LINE
  8
WHITE
 10
502.670000
 20
244.570130
 30
0.000000
 11
499.490000
 21
223.260100
 31
0.000000
  6
CONTINUOUS
  0
LINE
  8
WHITE
 10
499.490000
 20
223.260100
 30
0.000000
 11
492.310000
 21
201.390100
 31
0.000000
  6
CONTINUOUS
  0
LINE
  8
WHITE
 10
492.310000
 20
201.390100
 30
0.000000
 11
480.680000
 21
179.170100
 31
0.000000
  6
CONTINUOUS
  0
LINE
  8
WHITE
 10
480.680000
 20
179.170100
 30
0.000000
 11
464.050200
 21
156.840100
 31
0.000000
  6
CONTINUOUS
  0
LINE
  8
WHITE
 10
464.050200
 20
156.840100
 30
0.000000
 11
441.950200
 21
134.510000
 31
0.000000
  6
CONTINUOUS
  0
LINE
  8
WHITE
 10
441.950200
 20
134.510000
 30
0.000000
 11
432.260200
 21
126.870000
 31
0.000000
  6
CONTINUOUS
  0
LINE
  8
WHITE
 10
441.600200
 20
389.270000
 30
0.000000
 11
451.570200
 21
384.290000
 31
0.000000
  6
CONTINUOUS
  0
LINE
  8
WHITE
 10
461.540200
 20
388.700000
 30
0.000000
 11
483.370000
 21
381.510000
 31
0.000000
  6
CONTINUOUS
  0
LINE
  8
WHITE
 10
528.490000
 20
181.920100
 30
0.000000
 11
521.820000
 21
172.790100
 31
0.000000
  6
CONTINUOUS
  0
LINE
  8
WHITE
 10
521.820000
 20
172.790100
 30
0.000000
 11
501.190000
 21
152.280100
 31
0.000000
  6
CONTINUOUS
  0
LINE
  8
WHITE
 10
501.190000
 20
152.280100
 30
0.000000
 11
474.300000
 21
132.460000
 31
0.000000
  6
CONTINUOUS
  0
LINE
  8
WHITE
 10
474.300000
 20
132.460000
 30
0.000000
 11
462.570200
 21
125.750000
 31
0.000000
  6
CONTINUOUS
  0
LINE
  8
WHITE
 10
485.130000
 20
124.820000
 30
0.000000
 11
512.590000
 21
137.810000
 31
0.000000
  6
CONTINUOUS
  0
LINE
  8
WHITE
 10
512.590000
 20
137.810000
 30
0.000000
 11
548.140000
 21
160.370100
 31
0.000000
  6
CONTINUOUS
  0
LINE
  8
WHITE
 10
548.140000
 20
160.370100
 30
0.000000
 11
553.760000
 21
165.280100
 31
0.000000
  6
CONTINUOUS
  0
LINE
  8
WHITE
 10
528.180000
 20
358.180000
 30
0.000000
 11
528.420000
 21
358.050000
 31
0.000000
  6
CONTINUOUS
  0
LINE
  8
WHITE
 10
528.420000
 20
358.050000
 30
0.000000
 11
564.310000
 21
328.430100
 31
0.000000
  6
CONTINUOUS
  0
LINE
  8
WHITE
 10
564.310000
 20
328.430100
 30
0.000000
 11
579.580000
 21
310.880100
 31
0.000000
  6
CONTINUOUS
  0
LINE
  8
WHITE
 10
579.580000
 20
310.880100
 30
0.000000
 11
591.890000
 21
291.850100
 31
0.000000
  6
CONTINUOUS
  0
LINE
  8
WHITE
 10
591.890000
 20
291.850100
 30
0.000000
 11
600.090000
 21
271.570100
 31
0.000000
  6
CONTINUOUS
  0
LINE
  8
WHITE
 10
600.090000
 20
271.570100
 30
0.000000
 11
603.390000
 21
250.270128
 31
0.000000
  6
CONTINUOUS
  0
LINE
  8
WHITE
 10
603.390000
 20
250.270128
 30
0.000000
 11
600.770000
 21
228.390100
 31
0.000000
  6
CONTINUOUS
  0
LINE
  8
WHITE
 10
600.770000
 20
228.390100
 30
0.000000
 11
591.320000
 21
205.830100
 31
0.000000
  6
CONTINUOUS
  0
LINE
  8
WHITE
 10
591.320000
 20
205.830100
 30
0.000000
 11
590.440000
 21
204.670100
 31
0.000000
  6
CONTINUOUS
  0
LINE
  8
WHITE
 10
547.930000
 20
280.460100
 30
0.000000
 11
539.030000
 21
301.690100
 31
0.000000
  6
CONTINUOUS
  0
LINE
  8
WHITE
 10
552.140000
 20
238.670100
 30
0.000000
 11
552.010000
 21
235.340100
 31
0.000000
  6
CONTINUOUS
  0
LINE
  8
WHITE
 10
552.010000
 20
235.340100
 30
0.000000
 11
546.880000
 21
214.490100
 31
0.000000
  6
CONTINUOUS
  0
LINE
  8
WHITE
 10
546.880000
 20
214.490100
 30
0.000000
 11
543.860000
 21
208.100100
 31
0.000000
  6
CONTINUOUS
  0
LINE
  8
WHITE
 10
552.420000
 20
258.480130
 30
0.000000
 11
550.250000
 21
273.140100
 31
0.000000
  6
CONTINUOUS
  0
LINE
  8
WHITE
 10
554.520000
 20
269.290100
 30
0.000000
 11
555.090000
 21
272.940100
 31
0.000000
  6
CONTINUOUS
  0
LINE
  8
WHITE
 10
555.000000
 20
324.890100
 30
0.000000
 11
554.740000
 21
324.780100
 31
0.000000
  6
CONTINUOUS
  0
LINE
  8
WHITE
 10
554.860000
 20
227.820100
 30
0.000000
 11
556.110000
 21
229.300100
 31
0.000000
  6
CONTINUOUS
  0
LINE
  8
WHITE
 10
561.080000
 20
171.670100
 30
0.000000
 11
555.780000
 21
167.040100
 31
0.000000
  6
CONTINUOUS
  0
LINE
  8
WHITE
 10
593.600000
 20
169.150100
 30
0.000000
 11
594.730000
 21
169.150100
 31
0.000000
  6
CONTINUOUS
  0
LINE
  8
WHITE
 10
594.730000
 20
169.150100
 30
0.000000
 11
593.030000
 21
165.950100
 31
0.000000
  6
CONTINUOUS
  0
LINE
  8
WHITE
 10
593.030000
 20
165.950100
 30
0.000000
 11
578.670000
 21
160.260100
 31
0.000000
  6
CONTINUOUS
  0
LINE
  8
WHITE
 10
578.670000
 20
160.260100
 30
0.000000
 11
580.950000
 21
163.220100
 31
0.000000
  6
CONTINUOUS
  0
LINE
  8
WHITE
 10
580.950000
 20
163.220100
 30
0.000000
 11
587.560000
 21
166.180100
 31
0.000000
  6
CONTINUOUS
  0
LINE
  8
WHITE
 10
587.560000
 20
166.180100
 30
0.000000
 11
594.160000
 21
169.150100
 31
0.000000
  6
CONTINUOUS
  0
LINE
  8
WHITE
 10
627.590000
 20
193.180100
 30
0.000000
 11
588.280000
 21
193.180100
 31
0.000000
  6
CONTINUOUS
  0
LINE
  8
WHITE
 10
607.950000
 20
178.030100
 30
0.000000
 11
607.950000
 21
177.010100
 31
0.000000
  6
CONTINUOUS
  0
LINE
  8
WHITE
 10
607.950000
 20
177.010100
 30
0.000000
 11
607.040000
 21
176.890100
 31
0.000000
  6
CONTINUOUS
  0
LINE
  8
WHITE
 10
607.040000
 20
176.890100
 30
0.000000
 11
603.740000
 21
172.330100
 31
0.000000
  6
CONTINUOUS
  0
LINE
  8
WHITE
 10
603.740000
 20
172.330100
 30
0.000000
 11
604.480000
 21
170.850100
 31
0.000000
  6
CONTINUOUS
  0
LINE
  8
WHITE
 10
214.480000
 20
253.570130
 30
0.000000
 11
50.000000
 21
253.570130
 31
0.000000
  6
CONTINUOUS
  0
LINE
  8
WHITE
 10
553.920000
 20
139.520000
 30
0.000000
 11
145.020000
 21
139.520000
 31
0.000000
  6
CONTINUOUS
  0
LINE
  8
WHITE
 10
210.720000
 20
383.820000
 30
0.000000
 11
213.850000
 21
380.610000
 31
0.000000
  6
CONTINUOUS
  0
LINE
  8
WHITE
 10
213.850000
 20
380.610000
 30
0.000000
 11
219.200000
 21
383.690000
 31
0.000000
  6
CONTINUOUS
  0
LINE
  8
WHITE
 10
219.200000
 20
383.690000
 30
0.000000
 11
230.020000
 21
385.510000
 31
0.000000
  6
CONTINUOUS
  0
LINE
  8
WHITE
 10
230.020000
 20
385.510000
 30
0.000000
 11
234.700000
 21
387.330000
 31
0.000000
  6
CONTINUOUS
  0
LINE
  8
WHITE
 10
234.700000
 20
387.330000
 30
0.000000
 11
232.990000
 21
384.480000
 31
0.000000
  6
CONTINUOUS
  0
LINE
  8
WHITE
 10
232.990000
 20
384.480000
 30
0.000000
 11
233.210000
 21
382.200000
 31
0.000000
  6
CONTINUOUS
  0
LINE
  8
WHITE
 10
233.210000
 20
382.200000
 30
0.000000
 11
238.000000
 21
379.580000
 31
0.000000
  6
CONTINUOUS
  0
LINE
  8
WHITE
 10
238.000000
 20
379.580000
 30
0.000000
 11
237.660000
 21
385.620000
 31
0.000000
  6
CONTINUOUS
  0
LINE
  8
WHITE
 10
237.660000
 20
385.620000
 30
0.000000
 11
242.670000
 21
389.150000
 31
0.000000
  6
CONTINUOUS
  0
LINE
  8
WHITE
 10
242.670000
 20
389.150000
 30
0.000000
 11
246.090000
 21
385.400000
 31
0.000000
  6
CONTINUOUS
  0
LINE
  8
WHITE
 10
246.090000
 20
385.400000
 30
0.000000
 11
250.870000
 21
383.690000
 31
0.000000
  6
CONTINUOUS
  0
LINE
  8
WHITE
 10
250.870000
 20
383.690000
 30
0.000000
 11
254.980000
 21
381.180000
 31
0.000000
  6
CONTINUOUS
  0
LINE
  8
WHITE
 10
254.980000
 20
381.180000
 30
0.000000
 11
256.340000
 21
378.450000
 31
0.000000
  6
CONTINUOUS
  0
LINE
  8
WHITE
 10
256.340000
 20
378.450000
 30
0.000000
 11
259.650000
 21
378.560000
 31
0.000000
  6
CONTINUOUS
  0
LINE
  8
WHITE
 10
259.650000
 20
378.560000
 30
0.000000
 11
260.220000
 21
379.580000
 31
0.000000
  6
CONTINUOUS
  0
LINE
  8
WHITE
 10
260.220000
 20
379.580000
 30
0.000000
 11
263.520000
 21
377.420000
 31
0.000000
  6
CONTINUOUS
  0
LINE
  8
WHITE
 10
263.520000
 20
377.420000
 30
0.000000
 11
265.000000
 21
377.420000
 31
0.000000
  6
CONTINUOUS
  0
LINE
  8
WHITE
 10
265.000000
 20
377.420000
 30
0.000000
 11
268.080000
 21
380.490000
 31
0.000000
  6
CONTINUOUS
  0
LINE
  8
WHITE
 10
268.080000
 20
380.490000
 30
0.000000
 11
272.070200
 21
383.910000
 31
0.000000
  6
CONTINUOUS
  0
LINE
  8
WHITE
 10
272.070200
 20
383.910000
 30
0.000000
 11
276.630200
 21
384.830000
 31
0.000000
  6
CONTINUOUS
  0
LINE
  8
WHITE
 10
276.630200
 20
384.830000
 30
0.000000
 11
290.530200
 21
375.600000
 31
0.000000
  6
CONTINUOUS
  0
LINE
  8
WHITE
 10
290.530200
 20
375.600000
 30
0.000000
 11
291.320200
 21
371.950000
 31
0.000000
  6
CONTINUOUS
  0
LINE
  8
WHITE
 10
291.320200
 20
371.950000
 30
0.000000
 11
286.310200
 21
368.300000
 31
0.000000
  6
CONTINUOUS
  0
LINE
  8
WHITE
 10
286.310200
 20
368.300000
 30
0.000000
 11
284.710200
 21
363.180000
 31
0.000000
  6
CONTINUOUS
  0
LINE
  8
WHITE
 10
284.710200
 20
363.180000
 30
0.000000
 11
282.780200
 21
359.190000
 31
0.000000
  6
CONTINUOUS
  0
LINE
  8
WHITE
 10
282.780200
 20
359.190000
 30
0.000000
 11
281.290200
 21
358.500000
 31
0.000000
  6
CONTINUOUS
  0
LINE
  8
WHITE
 10
281.290200
 20
358.500000
 30
0.000000
 11
281.640200
 21
355.540000
 31
0.000000
  6
CONTINUOUS
  0
LINE
  8
WHITE
 10
281.640200
 20
355.540000
 30
0.000000
 11
279.470200
 21
353.030000
 31
0.000000
  6
CONTINUOUS
  0
LINE
  8
WHITE
 10
279.470200
 20
353.030000
 30
0.000000
 11
278.560200
 21
352.460000
 31
0.000000
  6
CONTINUOUS
  0
LINE
  8
WHITE
 10
278.560200
 20
352.460000
 30
0.000000
 11
278.900200
 21
349.160100
 31
0.000000
  6
CONTINUOUS
  0
LINE
  8
WHITE
 10
278.900200
 20
349.160100
 30
0.000000
 11
277.880200
 21
349.160100
 31
0.000000
  6
CONTINUOUS
  0
LINE
  8
WHITE
 10
277.880200
 20
349.160100
 30
0.000000
 11
280.720200
 21
342.670100
 31
0.000000
  6
CONTINUOUS
  0
LINE
  8
WHITE
 10
280.720200
 20
342.670100
 30
0.000000
 11
279.130200
 21
342.330100
 31
0.000000
  6
CONTINUOUS
  0
LINE
  8
WHITE
 10
279.130200
 20
342.330100
 30
0.000000
 11
273.660200
 21
341.190100
 31
0.000000
  6
CONTINUOUS
  0
LINE
  8
WHITE
 10
273.660200
 20
341.190100
 30
0.000000
 11
267.280000
 21
341.870100
 31
0.000000
  6
CONTINUOUS
  0
LINE
  8
WHITE
 10
267.280000
 20
341.870100
 30
0.000000
 11
267.850000
 21
340.270100
 31
0.000000
  6
CONTINUOUS
  0
LINE
  8
WHITE
 10
267.850000
 20
340.270100
 30
0.000000
 11
266.820000
 21
340.270100
 31
0.000000
  6
CONTINUOUS
  0
LINE
  8
WHITE
 10
266.820000
 20
340.270100
 30
0.000000
 11
268.310000
 21
340.160100
 31
0.000000
  6
CONTINUOUS
  0
LINE
  8
WHITE
 10
268.310000
 20
340.160100
 30
0.000000
 11
266.140000
 21
336.060100
 31
0.000000
  6
CONTINUOUS
  0
LINE
  8
WHITE
 10
266.140000
 20
336.060100
 30
0.000000
 11
260.790000
 21
334.460100
 31
0.000000
  6
CONTINUOUS
  0
LINE
  8
WHITE
 10
260.790000
 20
334.460100
 30
0.000000
 11
255.780000
 21
335.380100
 31
0.000000
  6
CONTINUOUS
  0
LINE
  8
WHITE
 10
255.780000
 20
335.380100
 30
0.000000
 11
254.750000
 21
337.770100
 31
0.000000
  6
CONTINUOUS
  0
LINE
  8
WHITE
 10
254.750000
 20
337.770100
 30
0.000000
 11
253.950000
 21
334.240100
 31
0.000000
  6
CONTINUOUS
  0
LINE
  8
WHITE
 10
253.950000
 20
334.240100
 30
0.000000
 11
247.110000
 21
328.200100
 31
0.000000
  6
CONTINUOUS
  0
LINE
  8
WHITE
 10
247.110000
 20
328.200100
 30
0.000000
 11
239.940000
 21
325.690100
 31
0.000000
  6
CONTINUOUS
  0
LINE
  8
WHITE
 10
239.940000
 20
325.690100
 30
0.000000
 11
238.450000
 21
320.340100
 31
0.000000
  6
CONTINUOUS
  0
LINE
  8
WHITE
 10
238.450000
 20
320.340100
 30
0.000000
 11
235.040000
 21
318.170100
 31
0.000000
  6
CONTINUOUS
  0
LINE
  8
WHITE
 10
235.040000
 20
318.170100
 30
0.000000
 11
234.580000
 21
314.180100
 31
0.000000
  6
CONTINUOUS
  0
LINE
  8
WHITE
 10
234.580000
 20
314.180100
 30
0.000000
 11
232.990000
 21
312.590100
 31
0.000000
  6
CONTINUOUS
  0
LINE
  8
WHITE
 10
232.990000
 20
312.590100
 30
0.000000
 11
227.180000
 21
310.990100
 31
0.000000
  6
CONTINUOUS
  0
LINE
  8
WHITE
 10
227.180000
 20
310.990100
 30
0.000000
 11
223.760000
 21
305.180100
 31
0.000000
  6
CONTINUOUS
  0
LINE
  8
WHITE
 10
223.760000
 20
305.180100
 30
0.000000
 11
223.410000
 21
303.240100
 31
0.000000
  6
CONTINUOUS
  0
LINE
  8
WHITE
 10
223.410000
 20
303.240100
 30
0.000000
 11
220.450000
 21
301.650100
 31
0.000000
  6
CONTINUOUS
  0
LINE
  8
WHITE
 10
220.450000
 20
301.650100
 30
0.000000
 11
217.830000
 21
302.790100
 31
0.000000
  6
CONTINUOUS
  0
LINE
  8
WHITE
 10
217.830000
 20
302.790100
 30
0.000000
 11
214.190000
 21
308.710100
 31
0.000000
  6
CONTINUOUS
  0
LINE
  8
WHITE
 10
214.190000
 20
308.710100
 30
0.000000
 11
199.150000
 21
305.300100
 31
0.000000
  6
CONTINUOUS
  0
LINE
  8
WHITE
 10
199.150000
 20
305.300100
 30
0.000000
 11
196.980000
 21
299.030100
 31
0.000000
  6
CONTINUOUS
  0
LINE
  8
WHITE
 10
196.980000
 20
299.030100
 30
0.000000
 11
196.980000
 21
293.220100
 31
0.000000
  6
CONTINUOUS
  0
LINE
  8
WHITE
 10
196.980000
 20
293.220100
 30
0.000000
 11
204.390000
 21
296.290100
 31
0.000000
  6
CONTINUOUS
  0
LINE
  8
WHITE
 10
204.390000
 20
296.290100
 30
0.000000
 11
210.540000
 21
296.860100
 31
0.000000
  6
CONTINUOUS
  0
LINE
  8
WHITE
 10
210.540000
 20
296.860100
 30
0.000000
 11
210.880000
 21
291.970100
 31
0.000000
  6
CONTINUOUS
  0
LINE
  8
WHITE
 10
210.880000
 20
291.970100
 30
0.000000
 11
210.080000
 21
287.180100
 31
0.000000
  6
CONTINUOUS
  0
LINE
  8
WHITE
 10
210.080000
 20
287.180100
 30
0.000000
 11
214.190000
 21
286.160100
 31
0.000000
  6
CONTINUOUS
  0
LINE
  8
WHITE
 10
214.190000
 20
286.160100
 30
0.000000
 11
215.330000
 21
282.620100
 31
0.000000
  6
CONTINUOUS
  0
LINE
  8
WHITE
 10
215.330000
 20
282.620100
 30
0.000000
 11
214.190000
 21
282.620100
 31
0.000000
  6
CONTINUOUS
  0
LINE
  8
WHITE
 10
214.190000
 20
282.620100
 30
0.000000
 11
213.500000
 21
278.180100
 31
0.000000
  6
CONTINUOUS
  0
LINE
  8
WHITE
 10
213.500000
 20
278.180100
 30
0.000000
 11
215.670000
 21
273.510100
 31
0.000000
  6
CONTINUOUS
  0
LINE
  8
WHITE
 10
215.670000
 20
273.510100
 30
0.000000
 11
220.680000
 21
271.910100
 31
0.000000
  6
CONTINUOUS
  0
LINE
  8
WHITE
 10
220.680000
 20
271.910100
 30
0.000000
 11
226.260000
 21
274.080100
 31
0.000000
  6
CONTINUOUS
  0
LINE
  8
WHITE
 10
226.260000
 20
274.080100
 30
0.000000
 11
227.520000
 21
271.690100
 31
0.000000
  6
CONTINUOUS
  0
LINE
  8
WHITE
 10
227.520000
 20
271.690100
 30
0.000000
 11
231.050000
 21
272.820100
 31
0.000000
  6
CONTINUOUS
  0
LINE
  8
WHITE
 10
231.050000
 20
272.820100
 30
0.000000
 11
237.770000
 21
274.640100
 31
0.000000
  6
CONTINUOUS
  0
LINE
  8
WHITE
 10
237.770000
 20
274.640100
 30
0.000000
 11
244.380000
 21
272.820100
 31
0.000000
  6
CONTINUOUS
  0
LINE
  8
WHITE
 10
244.380000
 20
272.820100
 30
0.000000
 11
254.750000
 21
267.810100
 31
0.000000
  6
CONTINUOUS
  0
LINE
  8
WHITE
 10
254.750000
 20
267.810100
 30
0.000000
 11
260.100000
 21
264.280100
 31
0.000000
  6
CONTINUOUS
  0
LINE
  8
WHITE
 10
260.100000
 20
264.280100
 30
0.000000
 11
272.180200
 21
255.500130
 31
0.000000
  6
CONTINUOUS
  0
LINE
  8
WHITE
 10
272.180200
 20
255.500130
 30
0.000000
 11
279.590200
 21
246.740130
 31
0.000000
  6
CONTINUOUS
  0
LINE
  8
WHITE
 10
279.590200
 20
246.740130
 30
0.000000
 11
289.040200
 21
241.720130
 31
0.000000
  6
CONTINUOUS
  0
LINE
  8
WHITE
 10
289.040200
 20
241.720130
 30
0.000000
 11
292.920200
 21
238.760100
 31
0.000000
  6
CONTINUOUS
  0
LINE
  8
WHITE
 10
292.920200
 20
238.760100
 30
0.000000
 11
293.490200
 21
233.980100
 31
0.000000
  6
CONTINUOUS
  0
LINE
  8
WHITE
 10
293.490200
 20
233.980100
 30
0.000000
 11
290.640200
 21
228.160100
 31
0.000000
  6
CONTINUOUS
  0
LINE
  8
WHITE
 10
290.640200
 20
228.160100
 30
0.000000
 11
286.880200
 21
218.940100
 31
0.000000
  6
CONTINUOUS
  0
LINE
  8
WHITE
 10
286.880200
 20
218.940100
 30
0.000000
 11
286.540200
 21
210.620100
 31
0.000000
  6
CONTINUOUS
  0
LINE
  8
WHITE
 10
286.540200
 20
210.620100
 30
0.000000
 11
284.710200
 21
207.080100
 31
0.000000
  6
CONTINUOUS
  0
LINE
  8
WHITE
 10
284.710200
 20
207.080100
 30
0.000000
 11
280.610200
 21
206.170100
 31
0.000000
  6
CONTINUOUS
  0
LINE
  8
WHITE
 10
280.610200
 20
206.170100
 30
0.000000
 11
279.020200
 21
205.040100
 31
0.000000
  6
CONTINUOUS
  0
LINE
  8
WHITE
 10
279.020200
 20
205.040100
 30
0.000000
 11
274.340200
 21
193.870100
 31
0.000000
  6
CONTINUOUS
  0
LINE
  8
WHITE
 10
274.340200
 20
193.870100
 30
0.000000
 11
273.660200
 21
188.060100
 31
0.000000
  6
CONTINUOUS
  0
LINE
  8
WHITE
 10
273.660200
 20
188.060100
 30
0.000000
 11
271.380200
 21
186.230100
 31
0.000000
  6
CONTINUOUS
  0
LINE
  8
WHITE
 10
271.380200
 20
186.230100
 30
0.000000
 11
262.040000
 21
177.230100
 31
0.000000
  6
CONTINUOUS
  0
LINE
  8
WHITE
 10
262.040000
 20
177.230100
 30
0.000000
 11
258.620000
 21
167.660100
 31
0.000000
  6
CONTINUOUS
  0
LINE
  8
WHITE
 10
258.620000
 20
167.660100
 30
0.000000
 11
259.870000
 21
156.950100
 31
0.000000
  6
CONTINUOUS
  0
LINE
  8
WHITE
 10
259.870000
 20
156.950100
 30
0.000000
 11
262.040000
 21
154.680100
 31
0.000000
  6
CONTINUOUS
  0
LINE
  8
WHITE
 10
262.040000
 20
154.680100
 30
0.000000
 11
264.090000
 21
146.470000
 31
0.000000
  6
CONTINUOUS
  0
LINE
  8
WHITE
 10
264.090000
 20
146.470000
 30
0.000000
 11
258.850000
 21
148.070000
 31
0.000000
  6
CONTINUOUS
  0
LINE
  8
WHITE
 10
258.850000
 20
148.070000
 30
0.000000
 11
254.860000
 21
150.910100
 31
0.000000
  6
CONTINUOUS
  0
LINE
  8
WHITE
 10
254.860000
 20
150.910100
 30
0.000000
 11
250.080000
 21
162.200100
 31
0.000000
  6
CONTINUOUS
  0
LINE
  8
WHITE
 10
250.080000
 20
162.200100
 30
0.000000
 11
236.860000
 21
182.360100
 31
0.000000
  6
CONTINUOUS
  0
LINE
  8
WHITE
 10
236.860000
 20
182.360100
 30
0.000000
 11
237.430000
 21
181.910100
 31
0.000000
  6
CONTINUOUS
  0
LINE
  8
WHITE
 10
237.430000
 20
181.910100
 30
0.000000
 11
237.660000
 21
191.480100
 31
0.000000
  6
CONTINUOUS
  0
LINE
  8
WHITE
 10
237.660000
 20
191.480100
 30
0.000000
 11
237.310000
 21
200.360100
 31
0.000000
  6
CONTINUOUS
  0
LINE
  8
WHITE
 10
237.310000
 20
200.360100
 30
0.000000
 11
235.610000
 21
207.540100
 31
0.000000
  6
CONTINUOUS
  0
LINE
  8
WHITE
 10
235.610000
 20
207.540100
 30
0.000000
 11
232.190000
 21
213.690100
 31
0.000000
  6
CONTINUOUS
  0
LINE
  8
WHITE
 10
232.190000
 20
213.690100
 30
0.000000
 11
227.290000
 21
214.940100
 31
0.000000
  6
CONTINUOUS
  0
LINE
  8
WHITE
 10
227.290000
 20
214.940100
 30
0.000000
 11
216.920000
 21
232.380100
 31
0.000000
  6
CONTINUOUS
  0
LINE
  8
WHITE
 10
216.920000
 20
232.380100
 30
0.000000
 11
216.350000
 21
237.730100
 31
0.000000
  6
CONTINUOUS
  0
LINE
  8
WHITE
 10
216.350000
 20
237.730100
 30
0.000000
 11
215.330000
 21
235.570100
 31
0.000000
  6
CONTINUOUS
  0
LINE
  8
WHITE
 10
215.330000
 20
235.570100
 30
0.000000
 11
212.140000
 21
241.720130
 31
0.000000
  6
CONTINUOUS
  0
LINE
  8
WHITE
 10
212.140000
 20
241.720130
 30
0.000000
 11
211.450000
 21
250.270128
 31
0.000000
  6
CONTINUOUS
  0
LINE
  8
WHITE
 10
211.450000
 20
250.270128
 30
0.000000
 11
216.460000
 21
255.730130
 31
0.000000
  6
CONTINUOUS
  0
LINE
  8
WHITE
 10
216.460000
 20
255.730130
 30
0.000000
 11
218.510000
 21
261.540100
 31
0.000000
  6
CONTINUOUS
  0
LINE
  8
WHITE
 10
218.510000
 20
261.540100
 30
0.000000
 11
216.010000
 21
263.820100
 31
0.000000
  6
CONTINUOUS
  0
LINE
  8
WHITE
 10
216.010000
 20
263.820100
 30
0.000000
 11
215.330000
 21
267.810100
 31
0.000000
  6
CONTINUOUS
  0
LINE
  8
WHITE
 10
215.330000
 20
267.810100
 30
0.000000
 11
213.850000
 21
270.660100
 31
0.000000
  6
CONTINUOUS
  0
LINE
  8
WHITE
 10
213.850000
 20
270.660100
 30
0.000000
 11
204.610000
 21
276.700100
 31
0.000000
  6
CONTINUOUS
  0
LINE
  8
WHITE
 10
204.610000
 20
276.700100
 30
0.000000
 11
196.980000
 21
279.320100
 31
0.000000
  6
CONTINUOUS
  0
LINE
  8
WHITE
 10
196.980000
 20
279.320100
 30
0.000000
 11
194.700000
 21
280.680100
 31
0.000000
  6
CONTINUOUS
  0
LINE
  8
WHITE
 10
194.700000
 20
280.680100
 30
0.000000
 11
178.300000
 21
292.190100
 31
0.000000
  6
CONTINUOUS
  0
LINE
  8
WHITE
 10
178.300000
 20
292.190100
 30
0.000000
 11
177.610000
 21
297.090100
 31
0.000000
  6
CONTINUOUS
  0
LINE
  8
WHITE
 10
177.610000
 20
297.090100
 30
0.000000
 11
176.470000
 21
293.680100
 31
0.000000
  6
CONTINUOUS
  0
LINE
  8
WHITE
 10
176.470000
 20
293.680100
 30
0.000000
 11
170.550000
 21
303.810100
 31
0.000000
  6
CONTINUOUS
  0
LINE
  8
WHITE
 10
170.550000
 20
303.810100
 30
0.000000
 11
169.520000
 21
308.140100
 31
0.000000
  6
CONTINUOUS
  0
LINE
  8
WHITE
 10
169.520000
 20
308.140100
 30
0.000000
 11
170.210000
 21
319.200100
 31
0.000000
  6
CONTINUOUS
  0
LINE
  8
WHITE
 10
170.210000
 20
319.200100
 30
0.000000
 11
168.720000
 21
319.200100
 31
0.000000
  6
CONTINUOUS
  0
LINE
  8
WHITE
 10
168.720000
 20
319.200100
 30
0.000000
 11
168.610000
 21
332.870100
 31
0.000000
  6
CONTINUOUS
  0
LINE
  8
WHITE
 10
168.610000
 20
332.870100
 30
0.000000
 11
173.850000
 21
337.430100
 31
0.000000
  6
CONTINUOUS
  0
LINE
  8
WHITE
 10
173.850000
 20
337.430100
 30
0.000000
 11
181.480000
 21
343.580100
 31
0.000000
  6
CONTINUOUS
  0
LINE
  8
WHITE
 10
181.480000
 20
343.580100
 30
0.000000
 11
183.310000
 21
350.070000
 31
0.000000
  6
CONTINUOUS
  0
LINE
  8
WHITE
 10
183.310000
 20
350.070000
 30
0.000000
 11
185.250000
 21
350.760000
 31
0.000000
  6
CONTINUOUS
  0
LINE
  8
WHITE
 10
185.250000
 20
350.760000
 30
0.000000
 11
184.910000
 21
354.170000
 31
0.000000
  6
CONTINUOUS
  0
LINE
  8
WHITE
 10
184.910000
 20
354.170000
 30
0.000000
 11
189.690000
 21
356.680000
 31
0.000000
  6
CONTINUOUS
  0
LINE
  8
WHITE
 10
189.690000
 20
356.680000
 30
0.000000
 11
190.490000
 21
361.010000
 31
0.000000
  6
CONTINUOUS
  0
LINE
  8
WHITE
 10
190.490000
 20
361.010000
 30
0.000000
 11
184.910000
 21
362.840000
 31
0.000000
  6
CONTINUOUS
  0
LINE
  8
WHITE
 10
184.910000
 20
362.840000
 30
0.000000
 11
177.500000
 21
358.730000
 31
0.000000
  6
CONTINUOUS
  0
LINE
  8
WHITE
 10
177.500000
 20
358.730000
 30
0.000000
 11
174.870000
 21
360.100000
 31
0.000000
  6
CONTINUOUS
  0
LINE
  8
WHITE
 10
174.870000
 20
360.100000
 30
0.000000
 11
164.280000
 21
354.860000
 31
0.000000
  6
CONTINUOUS
  0
LINE
  8
WHITE
 10
164.280000
 20
354.860000
 30
0.000000
 11
159.040000
 21
355.430000
 31
0.000000
  6
CONTINUOUS
  0
LINE
  8
WHITE
 10
159.040000
 20
355.430000
 30
0.000000
 11
155.510000
 21
361.920000
 31
0.000000
  6
CONTINUOUS
  0
LINE
  8
WHITE
 10
155.510000
 20
361.920000
 30
0.000000
 11
161.090000
 21
362.040000
 31
0.000000
  6
CONTINUOUS
  0
LINE
  8
WHITE
 10
161.090000
 20
362.040000
 30
0.000000
 11
164.400000
 21
365.800000
 31
0.000000
  6
CONTINUOUS
  0
LINE
  8
WHITE
 10
164.400000
 20
365.800000
 30
0.000000
 11
157.330000
 21
364.430000
 31
0.000000
  6
CONTINUOUS
  0
LINE
  8
WHITE
 10
157.330000
 20
364.430000
 30
0.000000
 11
155.850000
 21
364.950000
 31
0.000000
  6
CONTINUOUS
  0
LINE
  8
WHITE
 10
541.760000
 20
366.370000
 30
0.000000
 11
539.590000
 21
359.300000
 31
0.000000
  6
CONTINUOUS
  0
LINE
  8
WHITE
 10
539.590000
 20
359.300000
 30
0.000000
 11
549.730000
 21
352.350000
 31
0.000000
  6
CONTINUOUS
  0
LINE
  8
WHITE
 10
549.730000
 20
352.350000
 30
0.000000
 11
550.300000
 21
349.390100
 31
0.000000
  6
CONTINUOUS
  0
LINE
  8
WHITE
 10
550.300000
 20
349.390100
 30
0.000000
 11
544.490000
 21
350.530000
 31
0.000000
  6
CONTINUOUS
  0
LINE
  8
WHITE
 10
544.490000
 20
350.530000
 30
0.000000
 11
536.850000
 21
355.430000
 31
0.000000
  6
CONTINUOUS
  0
LINE
  8
WHITE
 10
536.850000
 20
355.430000
 30
0.000000
 11
528.880000
 21
358.390000
 31
0.000000
  6
CONTINUOUS
  0
LINE
  8
WHITE
 10
528.880000
 20
358.390000
 30
0.000000
 11
521.250000
 21
356.110000
 31
0.000000
  6
CONTINUOUS
  0
LINE
  8
WHITE
 10
521.250000
 20
356.110000
 30
0.000000
 11
522.160000
 21
353.720000
 31
0.000000
  6
CONTINUOUS
  0
LINE
  8
WHITE
 10
522.160000
 20
353.720000
 30
0.000000
 11
525.350000
 21
353.380000
 31
0.000000
  6
CONTINUOUS
  0
LINE
  8
WHITE
 10
525.350000
 20
353.380000
 30
0.000000
 11
535.720000
 21
346.200100
 31
0.000000
  6
CONTINUOUS
  0
LINE
  8
WHITE
 10
535.720000
 20
346.200100
 30
0.000000
 11
541.190000
 21
338.910100
 31
0.000000
  6
CONTINUOUS
  0
LINE
  8
WHITE
 10
541.190000
 20
338.910100
 30
0.000000
 11
541.300000
 21
336.630100
 31
0.000000
  6
CONTINUOUS
  0
LINE
  8
WHITE
 10
541.300000
 20
336.630100
 30
0.000000
 11
538.680000
 21
335.830100
 31
0.000000
  6
CONTINUOUS
  0
ARC
  8
WHITE
 10
553.177117
 20
329.874689
 30
0.000000
 40
15.672693
 50
157.667157
 51
176.138738
  6
CONTINUOUS
  0
LINE
  8
WHITE
 10
537.540000
 20
330.930100
 30
0.000000
 11
536.630000
 21
330.820100
 31
0.000000
  6
CONTINUOUS
  0
LINE
  8
WHITE
 10
536.630000
 20
330.820100
 30
0.000000
 11
536.290000
 21
327.400100
 31
0.000000
  6
CONTINUOUS
  0
LINE
  8
WHITE
 10
536.290000
 20
327.400100
 30
0.000000
 11
540.960000
 21
322.730100
 31
0.000000
  6
CONTINUOUS
  0
LINE
  8
WHITE
 10
540.960000
 20
322.730100
 30
0.000000
 11
543.690000
 21
317.490100
 31
0.000000
  6
CONTINUOUS
  0
LINE
  8
WHITE
 10
543.690000
 20
317.490100
 30
0.000000
 11
542.100000
 21
317.490100
 31
0.000000
  6
CONTINUOUS
  0
LINE
  8
WHITE
 10
542.100000
 20
317.490100
 30
0.000000
 11
539.930000
 21
318.280100
 31
0.000000
  6
CONTINUOUS
  0
LINE
  8
WHITE
 10
539.930000
 20
318.280100
 30
0.000000
 11
536.170000
 21
320.680100
 31
0.000000
  6
CONTINUOUS
  0
LINE
  8
WHITE
 10
536.170000
 20
320.680100
 30
0.000000
 11
529.900000
 21
321.360100
 31
0.000000
  6
CONTINUOUS
  0
LINE
  8
WHITE
 10
529.900000
 20
321.360100
 30
0.000000
 11
533.780000
 21
315.210100
 31
0.000000
  6
CONTINUOUS
  0
LINE
  8
WHITE
 10
533.780000
 20
315.210100
 30
0.000000
 11
539.820000
 21
310.080100
 31
0.000000
  6
CONTINUOUS
  0
LINE
  8
WHITE
 10
539.820000
 20
310.080100
 30
0.000000
 11
538.450000
 21
295.610100
 31
0.000000
  6
CONTINUOUS
  0
LINE
  8
WHITE
 10
538.450000
 20
295.610100
 30
0.000000
 11
535.380000
 21
290.480100
 31
0.000000
  6
CONTINUOUS
  0
LINE
  8
WHITE
 10
535.380000
 20
290.480100
 30
0.000000
 11
525.690000
 21
290.140100
 31
0.000000
  6
CONTINUOUS
  0
LINE
  8
WHITE
 10
525.690000
 20
290.140100
 30
0.000000
 11
526.030000
 21
286.040100
 31
0.000000
  6
CONTINUOUS
  0
LINE
  8
WHITE
 10
526.030000
 20
286.040100
 30
0.000000
 11
531.040000
 21
280.800100
 31
0.000000
  6
CONTINUOUS
  0
LINE
  8
WHITE
 10
531.040000
 20
280.800100
 30
0.000000
 11
532.410000
 21
273.510100
 31
0.000000
  6
CONTINUOUS
  0
LINE
  8
WHITE
 10
532.410000
 20
273.510100
 30
0.000000
 11
532.070000
 21
265.990100
 31
0.000000
  6
CONTINUOUS
  0
LINE
  8
WHITE
 10
532.070000
 20
265.990100
 30
0.000000
 11
521.590000
 21
267.690100
 31
0.000000
  6
CONTINUOUS
  0
LINE
  8
WHITE
 10
521.590000
 20
267.690100
 30
0.000000
 11
524.660000
 21
255.960130
 31
0.000000
  6
CONTINUOUS
  0
LINE
  8
WHITE
 10
524.660000
 20
255.960130
 30
0.000000
 11
524.320000
 21
253.340130
 31
0.000000
  6
CONTINUOUS
  0
LINE
  8
WHITE
 10
524.320000
 20
253.340130
 30
0.000000
 11
522.610000
 21
255.280130
 31
0.000000
  6
CONTINUOUS
  0
LINE
  8
WHITE
 10
522.610000
 20
255.280130
 30
0.000000
 11
515.890000
 21
261.540100
 31
0.000000
  6
CONTINUOUS
  0
LINE
  8
WHITE
 10
515.890000
 20
261.540100
 30
0.000000
 11
512.590000
 21
262.230100
 31
0.000000
  6
CONTINUOUS
  0
LINE
  8
WHITE
 10
512.590000
 20
262.230100
 30
0.000000
 11
506.320000
 21
279.770100
 31
0.000000
  6
CONTINUOUS
  0
LINE
  8
WHITE
 10
506.320000
 20
279.770100
 30
0.000000
 11
500.850000
 21
283.530100
 31
0.000000
  6
CONTINUOUS
  0
LINE
  8
WHITE
 10
500.850000
 20
283.530100
 30
0.000000
 11
496.630000
 21
284.900100
 31
0.000000
  6
CONTINUOUS
  0
LINE
  8
WHITE
 10
496.630000
 20
284.900100
 30
0.000000
 11
492.530000
 21
287.290100
 31
0.000000
  6
CONTINUOUS
  0
LINE
  8
WHITE
 10
492.530000
 20
287.290100
 30
0.000000
 11
490.480000
 21
284.330100
 31
0.000000
  6
CONTINUOUS
  0
LINE
  8
WHITE
 10
490.480000
 20
284.330100
 30
0.000000
 11
486.380000
 21
282.390100
 31
0.000000
  6
CONTINUOUS
  0
LINE
  8
WHITE
 10
486.380000
 20
282.390100
 30
0.000000
 11
481.370000
 21
269.750100
 31
0.000000
  6
CONTINUOUS
  0
LINE
  8
WHITE
 10
481.370000
 20
269.750100
 30
0.000000
 11
480.570000
 21
267.130100
 31
0.000000
  6
CONTINUOUS
  0
LINE
  8
WHITE
 10
480.570000
 20
267.130100
 30
0.000000
 11
477.040000
 21
267.350100
 31
0.000000
  6
CONTINUOUS
  0
LINE
  8
WHITE
 10
477.040000
 20
267.350100
 30
0.000000
 11
465.420200
 21
292.540100
 31
0.000000
  6
CONTINUOUS
  0
LINE
  8
WHITE
 10
465.420200
 20
292.540100
 30
0.000000
 11
460.630200
 21
294.810100
 31
0.000000
  6
CONTINUOUS
  0
LINE
  8
WHITE
 10
460.630200
 20
294.810100
 30
0.000000
 11
458.920200
 21
295.380100
 31
0.000000
  6
CONTINUOUS
  0
LINE
  8
WHITE
 10
458.920200
 20
295.380100
 30
0.000000
 11
447.300200
 21
297.550100
 31
0.000000
  6
CONTINUOUS
  0
LINE
  8
WHITE
 10
447.300200
 20
297.550100
 30
0.000000
 11
449.010200
 21
291.620100
 31
0.000000
  6
CONTINUOUS
  0
LINE
  8
WHITE
 10
449.010200
 20
291.620100
 30
0.000000
 11
448.440200
 21
286.380100
 31
0.000000
  6
CONTINUOUS
  0
LINE
  8
WHITE
 10
448.440200
 20
286.380100
 30
0.000000
 11
441.490200
 21
281.710100
 31
0.000000
  6
CONTINUOUS
  0
LINE
  8
WHITE
 10
441.490200
 20
281.710100
 30
0.000000
 11
438.300200
 21
279.090100
 31
0.000000
  6
CONTINUOUS
  0
LINE
  8
WHITE
 10
438.300200
 20
279.090100
 30
0.000000
 11
431.800200
 21
277.720100
 31
0.000000
  6
CONTINUOUS
  0
LINE
  8
WHITE
 10
431.800200
 20
277.720100
 30
0.000000
 11
425.310200
 21
279.090100
 31
0.000000
  6
CONTINUOUS
  0
LINE
  8
WHITE
 10
425.310200
 20
279.090100
 30
0.000000
 11
422.350200
 21
282.160100
 31
0.000000
  6
CONTINUOUS
  0
LINE
  8
WHITE
 10
422.350200
 20
282.160100
 30
0.000000
 11
422.120200
 21
287.070100
 31
0.000000
  6
CONTINUOUS
  0
LINE
  8
WHITE
 10
422.120200
 20
287.070100
 30
0.000000
 11
421.320200
 21
289.230100
 31
0.000000
  6
CONTINUOUS
  0
LINE
  8
WHITE
 10
421.320200
 20
289.230100
 30
0.000000
 11
411.750200
 21
295.380100
 31
0.000000
  6
CONTINUOUS
  0
LINE
  8
WHITE
 10
411.750200
 20
295.380100
 30
0.000000
 11
404.680200
 21
304.610100
 31
0.000000
  6
CONTINUOUS
  0
LINE
  8
WHITE
 10
404.680200
 20
304.610100
 30
0.000000
 11
402.410200
 21
317.260100
 31
0.000000
  6
CONTINUOUS
  0
LINE
  8
WHITE
 10
402.410200
 20
317.260100
 30
0.000000
 11
395.120200
 21
317.940100
 31
0.000000
  6
CONTINUOUS
  0
LINE
  8
WHITE
 10
395.120200
 20
317.940100
 30
0.000000
 11
391.240200
 21
323.410100
 31
0.000000
  6
CONTINUOUS
  0
LINE
  8
WHITE
 10
391.240200
 20
323.410100
 30
0.000000
 11
388.510200
 21
324.660100
 31
0.000000
  6
CONTINUOUS
  0
LINE
  8
WHITE
 10
388.510200
 20
324.660100
 30
0.000000
 11
386.460200
 21
324.780100
 31
0.000000
  6
CONTINUOUS
  0
LINE
  8
WHITE
 10
386.460200
 20
324.780100
 30
0.000000
 11
385.890200
 21
323.640100
 31
0.000000
  6
CONTINUOUS
  0
LINE
  8
WHITE
 10
385.890200
 20
323.640100
 30
0.000000
 11
384.860200
 21
323.530100
 31
0.000000
  6
CONTINUOUS
  0
LINE
  8
WHITE
 10
384.860200
 20
323.530100
 30
0.000000
 11
384.180200
 21
321.590100
 31
0.000000
  6
CONTINUOUS
  0
LINE
  8
WHITE
 10
384.180200
 20
321.590100
 30
0.000000
 11
379.740180
 21
322.610100
 31
0.000000
  6
CONTINUOUS
  0
LINE
  8
WHITE
 10
379.740180
 20
322.610100
 30
0.000000
 11
377.230180
 21
325.120100
 31
0.000000
  6
CONTINUOUS
  0
LINE
  8
WHITE
 10
377.230180
 20
325.120100
 30
0.000000
 11
370.850179
 21
326.490100
 31
0.000000
  6
CONTINUOUS
  0
LINE
  8
WHITE
 10
370.850179
 20
326.490100
 30
0.000000
 11
365.380180
 21
332.640100
 31
0.000000
  6
CONTINUOUS
  0
LINE
  8
WHITE
 10
365.380180
 20
332.640100
 30
0.000000
 11
361.840180
 21
332.410100
 31
0.000000
  6
CONTINUOUS
  0
LINE
  8
WHITE
 10
361.840180
 20
332.410100
 30
0.000000
 11
357.630200
 21
329.790100
 31
0.000000
  6
CONTINUOUS
  0
LINE
  8
WHITE
 10
357.630200
 20
329.790100
 30
0.000000
 11
355.580200
 21
329.570100
 31
0.000000
  6
CONTINUOUS
  0
LINE
  8
WHITE
 10
355.580200
 20
329.570100
 30
0.000000
 11
347.720200
 21
321.820100
 31
0.000000
  6
CONTINUOUS
  0
LINE
  8
WHITE
 10
347.720200
 20
321.820100
 30
0.000000
 11
347.040200
 21
320.450100
 31
0.000000
  6
CONTINUOUS
  0
LINE
  8
WHITE
 10
347.040200
 20
320.450100
 30
0.000000
 11
338.260200
 21
320.340100
 31
0.000000
  6
CONTINUOUS
  0
LINE
  8
WHITE
 10
338.260200
 20
320.340100
 30
0.000000
 11
335.530200
 21
324.210100
 31
0.000000
  6
CONTINUOUS
  0
LINE
  8
WHITE
 10
335.530200
 20
324.210100
 30
0.000000
 11
335.990200
 21
334.350100
 31
0.000000
  6
CONTINUOUS
  0
LINE
  8
WHITE
 10
335.990200
 20
334.350100
 30
0.000000
 11
342.250200
 21
338.790100
 31
0.000000
  6
CONTINUOUS
  0
LINE
  8
WHITE
 10
342.250200
 20
338.790100
 30
0.000000
 11
346.810200
 21
345.170100
 31
0.000000
  6
CONTINUOUS
  0
LINE
  8
WHITE
 10
346.810200
 20
345.170100
 30
0.000000
 11
350.570200
 21
347.340100
 31
0.000000
  6
CONTINUOUS
  0
LINE
  8
WHITE
 10
350.570200
 20
347.340100
 30
0.000000
 11
356.380200
 21
348.710100
 31
0.000000
  6
CONTINUOUS
  0
LINE
  8
WHITE
 10
356.380200
 20
348.710100
 30
0.000000
 11
356.600200
 21
350.640000
 31
0.000000
  6
CONTINUOUS
  0
LINE
  8
WHITE
 10
356.600200
 20
350.640000
 30
0.000000
 11
364.240180
 21
353.720000
 31
0.000000
  6
CONTINUOUS
  0
LINE
  8
WHITE
 10
364.240180
 20
353.720000
 30
0.000000
 11
364.350180
 21
355.090000
 31
0.000000
  6
CONTINUOUS
  0
LINE
  8
WHITE
 10
364.350180
 20
355.090000
 30
0.000000
 11
374.260180
 21
359.070000
 31
0.000000
  6
CONTINUOUS
  0
LINE
  8
WHITE
 10
374.260180
 20
359.070000
 30
0.000000
 11
371.300179
 21
363.410000
 31
0.000000
  6
CONTINUOUS
  0
LINE
  8
WHITE
 10
371.300179
 20
363.410000
 30
0.000000
 11
367.430180
 21
363.290000
 31
0.000000
  6
CONTINUOUS
  0
LINE
  8
WHITE
 10
367.430180
 20
363.290000
 30
0.000000
 11
365.380180
 21
356.340000
 31
0.000000
  6
CONTINUOUS
  0
LINE
  8
WHITE
 10
365.380180
 20
356.340000
 30
0.000000
 11
361.960180
 21
352.580000
 31
0.000000
  6
CONTINUOUS
  0
LINE
  8
WHITE
 10
361.960180
 20
352.580000
 30
0.000000
 11
360.020200
 21
352.580000
 31
0.000000
  6
CONTINUOUS
  0
LINE
  8
WHITE
 10
360.020200
 20
352.580000
 30
0.000000
 11
360.710180
 21
353.150000
 31
0.000000
  6
CONTINUOUS
  0
LINE
  8
WHITE
 10
360.710180
 20
353.150000
 30
0.000000
 11
359.230200
 21
359.640000
 31
0.000000
  6
CONTINUOUS
  0
LINE
  8
WHITE
 10
359.230200
 20
359.640000
 30
0.000000
 11
358.200200
 21
359.640000
 31
0.000000
  6
CONTINUOUS
  0
LINE
  8
WHITE
 10
358.200200
 20
359.640000
 30
0.000000
 11
357.630200
 21
358.500000
 31
0.000000
  6
CONTINUOUS
  0
LINE
  8
WHITE
 10
357.630200
 20
358.500000
 30
0.000000
 11
350.450200
 21
360.330000
 31
0.000000
  6
CONTINUOUS
  0
LINE
  8
WHITE
 10
350.450200
 20
360.330000
 30
0.000000
 11
350.000200
 21
361.810000
 31
0.000000
  6
CONTINUOUS
  0
LINE
  8
WHITE
 10
350.000200
 20
361.810000
 30
0.000000
 11
351.020200
 21
361.920000
 31
0.000000
  6
CONTINUOUS
  0
LINE
  8
WHITE
 10
351.020200
 20
361.920000
 30
0.000000
 11
352.160200
 21
363.980000
 31
0.000000
  6
CONTINUOUS
  0
LINE
  8
WHITE
 10
352.160200
 20
363.980000
 30
0.000000
 11
358.770200
 21
367.850000
 31
0.000000
  6
CONTINUOUS
  0
LINE
  8
WHITE
 10
358.770200
 20
367.850000
 30
0.000000
 11
362.980180
 21
374.450000
 31
0.000000
  6
CONTINUOUS
  0
LINE
  8
WHITE
 10
362.980180
 20
374.450000
 30
0.000000
 11
369.020180
 21
378.900000
 31
0.000000
  6
CONTINUOUS
  0
LINE
  8
WHITE
 10
369.020180
 20
378.900000
 30
0.000000
 11
375.970180
 21
381.290000
 31
0.000000
  6
CONTINUOUS
  0
LINE
  8
WHITE
 10
375.970180
 20
381.290000
 30
0.000000
 11
376.540180
 21
381.860000
 31
0.000000
  6
CONTINUOUS
  0
LINE
  8
WHITE
 10
376.540180
 20
381.860000
 30
0.000000
 11
384.180200
 21
378.220000
 31
0.000000
  6
CONTINUOUS
  0
LINE
  8
WHITE
 10
384.180200
 20
378.220000
 30
0.000000
 11
393.640200
 21
371.270000
 31
0.000000
  6
CONTINUOUS
  0
LINE
  8
WHITE
 10
393.640200
 20
371.270000
 30
0.000000
 11
398.650200
 21
373.540000
 31
0.000000
  6
CONTINUOUS
  0
LINE
  8
WHITE
 10
398.650200
 20
373.540000
 30
0.000000
 11
398.080200
 21
373.540000
 31
0.000000
  6
CONTINUOUS
  0
LINE
  8
WHITE
 10
398.080200
 20
373.540000
 30
0.000000
 11
406.510200
 21
377.650000
 31
0.000000
  6
CONTINUOUS
  0
LINE
  8
WHITE
 10
406.510200
 20
377.650000
 30
0.000000
 11
415.060200
 21
379.360000
 31
0.000000
  6
CONTINUOUS
  0
LINE
  8
WHITE
 10
415.060200
 20
379.360000
 30
0.000000
 11
422.920200
 21
383.120000
 31
0.000000
  6
CONTINUOUS
  0
LINE
  8
WHITE
 10
422.920200
 20
383.120000
 30
0.000000
 11
423.150200
 21
384.940000
 31
0.000000
  6
CONTINUOUS
  0
LINE
  8
WHITE
 10
423.150200
 20
384.940000
 30
0.000000
 11
430.210200
 21
388.470000
 31
0.000000
  6
CONTINUOUS
  0
LINE
  8
WHITE
 10
430.210200
 20
388.470000
 30
0.000000
 11
437.960200
 21
389.380000
 31
0.000000
  6
CONTINUOUS
  0
LINE
  8
WHITE
 10
437.960200
 20
389.380000
 30
0.000000
 11
446.960200
 21
384.370000
 31
0.000000
  6
CONTINUOUS
  0
LINE
  8
WHITE
 10
446.960200
 20
384.370000
 30
0.000000
 11
459.830200
 21
384.140000
 31
0.000000
  6
CONTINUOUS
  0
LINE
  8
WHITE
 10
459.830200
 20
384.140000
 30
0.000000
 11
467.350200
 21
381.400000
 31
0.000000
  6
CONTINUOUS
  0
LINE
  8
WHITE
 10
467.350200
 20
381.400000
 30
0.000000
 11
474.980000
 21
382.550000
 31
0.000000
  6
CONTINUOUS
  0
LINE
  8
WHITE
 10
474.980000
 20
382.550000
 30
0.000000
 11
473.960000
 21
384.030000
 31
0.000000
  6
CONTINUOUS
  0
LINE
  8
WHITE
 10
473.960000
 20
384.030000
 30
0.000000
 11
481.930000
 21
381.400000
 31
0.000000
  6
CONTINUOUS
  0
LINE
  8
WHITE
 10
481.930000
 20
381.400000
 30
0.000000
 11
489.910000
 21
381.970000
 31
0.000000
  6
CONTINUOUS
  0
LINE
  8
WHITE
 10
489.910000
 20
381.970000
 30
0.000000
 11
489.600000
 21
383.790000
 31
0.000000
  6
CONTINUOUS
  0
LINE
  8
WHITE
 10
622.010000
 20
313.380100
 30
0.000000
 11
535.920000
 21
313.390100
 31
0.000000
  6
CONTINUOUS
  0
LINE
  8
WHITE
 10
649.770000
 20
253.570130
 30
0.000000
 11
555.550000
 21
253.570130
 31
0.000000
  6
CONTINUOUS
  0
LINE
  8
WHITE
 10
608.400000
 20
174.490100
 30
0.000000
 11
608.980000
 21
178.030100
 31
0.000000
  6
CONTINUOUS
  0
LINE
  8
WHITE
 10
608.980000
 20
178.030100
 30
0.000000
 11
608.070000
 21
178.490100
 31
0.000000
  6
CONTINUOUS
  0
LINE
  8
WHITE
 10
608.070000
 20
178.490100
 30
0.000000
 11
607.950000
 21
177.460100
 31
0.000000
  6
CONTINUOUS
  0
ENDSEC
  0
EOF
